  0
SECTION
  2
HEADER
  9
$ACADVER
  1
AC1009
  9
$INSBASE
 10
0.0
 20
0.0
 30
0.0
  9
$EXTMIN
 10
-800.05492744973753
 20
-1204.432801395556
 30
-0.0015258207003583
  9
$EXTMAX
 10
1000.05493583164
 20
1471.867842570083
 30
0.0000000349246037
  9
$LIMMIN
 10
0.0
 20
0.0
  9
$LIMMAX
 10
0.0
 20
0.0
  9
$ORTHOMODE
 70
     0
  9
$REGENMODE
 70
     1
  9
$FILLMODE
 70
     1
  9
$QTEXTMODE
 70
     0
  9
$MIRRTEXT
 70
     1
  9
$DRAGMODE
 70
     2
  9
$LTSCALE
 40
50.799999999999997
  9
$OSMODE
 70
   231
  9
$ATTMODE
 70
     1
  9
$TEXTSIZE
 40
0.0
  9
$TRACEWID
 40
1.0
  9
$TEXTSTYLE
  7
STANDARD
  9
$CLAYER
  8
DATA
  9
$CELTYPE
  6
CONTINUOUS
  9
$CECOLOR
 62
   256
  9
$DIMSCALE
 40
1.0
  9
$DIMASZ
 40
0.18
  9
$DIMEXO
 40
0.0625
  9
$DIMDLI
 40
0.38
  9
$DIMRND
 40
0.0
  9
$DIMDLE
 40
0.0
  9
$DIMEXE
 40
0.18
  9
$DIMTP
 40
0.0
  9
$DIMTM
 40
0.0
  9
$DIMTXT
 40
0.18
  9
$DIMCEN
 40
0.09
  9
$DIMTSZ
 40
0.0
  9
$DIMTOL
 70
     0
  9
$DIMLIM
 70
     0
  9
$DIMTIH
 70
     1
  9
$DIMTOH
 70
     1
  9
$DIMSE1
 70
     0
  9
$DIMSE2
 70
     0
  9
$DIMTAD
 70
     0
  9
$DIMZIN
 70
     0
  9
$DIMBLK
  1

  9
$DIMASO
 70
     1
  9
$DIMSHO
 70
     1
  9
$DIMPOST
  1

  9
$DIMAPOST
  1

  9
$DIMALT
 70
     0
  9
$DIMALTD
 70
     2
  9
$DIMALTF
 40
25.399999999999999
  9
$DIMLFAC
 40
1.0
  9
$DIMTOFL
 70
     0
  9
$DIMTVP
 40
0.0
  9
$DIMTIX
 70
     0
  9
$DIMSOXD
 70
     0
  9
$DIMSAH
 70
     0
  9
$DIMBLK1
  1

  9
$DIMBLK2
  1

  9
$DIMSTYLE
  2
STANDARD
  9
$DIMCLRD
 70
     0
  9
$DIMCLRE
 70
     0
  9
$DIMCLRT
 70
     0
  9
$DIMTFAC
 40
1.0
  9
$DIMGAP
 40
0.09
  9
$LUNITS
 70
     2
  9
$LUPREC
 70
     4
  9
$SKETCHINC
 40
0.1
  9
$FILLETRAD
 40
0.0
  9
$AUNITS
 70
     0
  9
$AUPREC
 70
     0
  9
$MENU
  1
acad
  9
$ELEVATION
 40
0.0
  9
$PELEVATION
 40
0.0
  9
$THICKNESS
 40
0.0
  9
$LIMCHECK
 70
     0
  9
$BLIPMODE
 70
     0
  9
$CHAMFERA
 40
0.0
  9
$CHAMFERB
 40
0.0
  9
$SKPOLY
 70
     0
  9
$TDCREATE
 40
2453712.6099999999
  9
$TDUPDATE
 40
2453712.6191257639
  9
$TDINDWG
 40
0.0002523843
  9
$TDUSRTIMER
 40
0.0002523843
  9
$USRTIMER
 70
     1
  9
$ANGBASE
 50
0.0
  9
$ANGDIR
 70
     0
  9
$PDMODE
 70
     1
  9
$PDSIZE
 40
-2.0
  9
$PLINEWID
 40
0.0
  9
$COORDS
 70
     2
  9
$SPLFRAME
 70
     0
  9
$SPLINETYPE
 70
     6
  9
$SPLINESEGS
 70
     8
  9
$ATTDIA
 70
     0
  9
$ATTREQ
 70
     1
  9
$HANDLING
 70
     1
  9
$HANDSEED
  5
74A
  9
$SURFTAB1
 70
     6
  9
$SURFTAB2
 70
     6
  9
$SURFTYPE
 70
     6
  9
$SURFU
 70
     6
  9
$SURFV
 70
     6
  9
$UCSNAME
  2

  9
$UCSORG
 10
0.0
 20
0.0
 30
0.0
  9
$UCSXDIR
 10
1.0
 20
0.0
 30
0.0
  9
$UCSYDIR
 10
0.0
 20
1.0
 30
0.0
  9
$PUCSNAME
  2

  9
$PUCSORG
 10
0.0
 20
0.0
 30
0.0
  9
$PUCSXDIR
 10
1.0
 20
0.0
 30
0.0
  9
$PUCSYDIR
 10
0.0
 20
1.0
 30
0.0
  9
$USERI1
 70
     0
  9
$USERI2
 70
     0
  9
$USERI3
 70
     0
  9
$USERI4
 70
     0
  9
$USERI5
 70
     0
  9
$USERR1
 40
0.0
  9
$USERR2
 40
0.0
  9
$USERR3
 40
0.0
  9
$USERR4
 40
0.0
  9
$USERR5
 40
0.0
  9
$WORLDVIEW
 70
     1
  9
$SHADEDGE
 70
     3
  9
$SHADEDIF
 70
    70
  9
$TILEMODE
 70
     1
  9
$MAXACTVP
 70
    64
  9
$PLIMCHECK
 70
     0
  9
$PEXTMIN
 10
1.0000000000000000E+020
 20
1.0000000000000000E+020
 30
1.0000000000000000E+020
  9
$PEXTMAX
 10
-1.0000000000000000E+020
 20
-1.0000000000000000E+020
 30
-1.0000000000000000E+020
  9
$PLIMMIN
 10
0.0
 20
0.0
  9
$PLIMMAX
 10
12.0
 20
9.0
  9
$UNITMODE
 70
     0
  9
$VISRETAIN
 70
     0
  9
$PLINEGEN
 70
     1
  9
$PSLTSCALE
 70
     0
  0
ENDSEC
  0
SECTION
  2
TABLES
  0
TABLE
  2
VPORT
 70
     2
  0
VPORT
  2
*ACTIVE
 70
     0
 10
0.0
 20
0.0
 11
1.0
 21
1.0
 12
100.0000041909516
 22
133.7175205872631
 13
0.0
 23
0.0
 14
1.0
 24
1.0
 15
0.0
 25
0.0
 16
0.0
 26
0.0
 36
1.0
 17
0.0
 27
0.0
 37
0.0
 40
2698.4493389501822
 41
1.665745856353591
 42
50.0
 43
0.0
 44
0.0
 50
0.0
 51
0.0
 71
     0
 72
  2000
 73
     1
 74
     1
 75
     0
 76
     0
 77
     0
 78
     0
  0
ENDTAB
  0
TABLE
  2
LTYPE
 70
    13
  0
LTYPE
  2
CONTINUOUS
 70
     0
  3
Solid line
 72
    65
 73
     0
 40
0.0
  0
LTYPE
  2
STYLE_11
 70
     0
  3

 72
    65
 73
     2
 40
0.2812500000000001
 49
0.1875
 49
-0.09375
  0
LTYPE
  2
STYLE_12
 70
     0
  3

 72
    65
 73
     4
 40
0.7500000000000001
 49
0.3750000000000001
 49
-0.1875
 49
0.0005
 49
-0.187
  0
ENDTAB
  0
TABLE
  2
LAYER
 70
    10
  0
LAYER
  2
0
 70
     0
 62
     7
  6
CONTINUOUS
  0
LAYER
  2
DATA
 70
     0
 62
     7
  6
CONTINUOUS
  0
LAYER
  2
HIBINO-BASE
 70
     0
 62
     7
  6
CONTINUOUS
  0
LAYER
  2
SIDE-DOWN-18_5
 70
     0
 62
     7
  6
CONTINUOUS
  0
LAYER
  2
SIDE-UP18_5
 70
     0
 62
     7
  6
CONTINUOUS
  0
LAYER
  2
TOP22
 70
     0
 62
     7
  6
CONTINUOUS
  0
LAYER
  2
BRACKET
 70
     0
 62
     7
  6
CONTINUOUS
  0
LAYER
  2
PATTERN_FILL
 70
     0
 62
     7
  6
CONTINUOUS
  0
LAYER
  2
SPEC
 70
     0
 62
     7
  6
CONTINUOUS
  0
LAYER
  2
DIMNSIONS
 70
     0
 62
     7
  6
CONTINUOUS
  0
ENDTAB
  0
TABLE
  2
STYLE
 70
     2
  0
STYLE
  2
STANDARD
 70
     0
 40
0.0
 41
1.0
 50
0.0
 71
     0
 42
0.0
  3
txt
  4
BIGFONT.SHX
  0
ENDTAB
  0
TABLE
  2
VIEW
 70
     0
  0
ENDTAB
  0
TABLE
  2
UCS
 70
     0
  0
ENDTAB
  0
TABLE
  2
APPID
 70
     1
  0
APPID
  2
ACAD
 70
     0
  0
ENDTAB
  0
TABLE
  2
DIMSTYLE
 70
     1
  0
DIMSTYLE
  2
STANDARD
 70
     0
  3

  4

  5

  6

  7

 40
1.0
 41
0.18
 42
0.0625
 43
0.38
 44
0.18
 45
0.0
 46
0.0
 47
0.0
 48
0.0
140
0.18
141
0.09
142
0.0
143
25.399999999999999
144
1.0
145
0.0
146
1.0
147
0.09
 71
     0
 72
     0
 73
     1
 74
     1
 75
     0
 76
     0
 77
     0
 78
     0
170
     0
171
     2
172
     0
173
     0
174
     0
175
     0
176
     0
177
     0
178
     0
  0
ENDTAB
  0
ENDSEC
  0
SECTION
  2
BLOCKS
  0
BLOCK
  8
0
  2
$MODEL_SPACE
 70
     0
 10
0.0
 20
0.0
 30
0.0
  3
$MODEL_SPACE
  1

  0
ENDBLK
  5
654
  8
0
  0
BLOCK
 67
     1
  8
0
  2
$PAPER_SPACE
 70
     0
 10
0.0
 20
0.0
 30
0.0
  3
$PAPER_SPACE
  1

  0
ENDBLK
  5
650
 67
     1
  8
0
  0
ENDSEC
  0
SECTION
  2
ENTITIES
  0
LINE
  5
33
  8
HIBINO-BASE
  6
CONTINUOUS
 62
     7
 10
-800.0
 20
1471.786335
 30
0.0
 11
1000.0
 21
1471.786335
 31
0.0
  0
LINE
  5
34
  8
HIBINO-BASE
  6
CONTINUOUS
 62
     7
 10
1000.0
 20
-1128.213665
 30
0.0
 11
-800.0
 21
-1128.213665
 31
0.0
  0
LINE
  5
35
  8
HIBINO-BASE
  6
CONTINUOUS
 62
     7
 10
-800.0
 20
-1128.213665
 30
0.0
 11
-800.0
 21
1471.786335
 31
0.0
  0
TEXT
  5
36
  8
HIBINO-BASE
 62
     7
 10
-728.15999999999985
 20
-1192.3004430000001
 30
0.0
 40
36.000441796874988
  1
Hibino Corporation
 41
0.8
 11
-728.15999999999985
 21
-1156.300001203125
 31
0.0
 73
     3
  0
LINE
  5
37
  8
HIBINO-BASE
  6
CONTINUOUS
 62
     7
 10
1000.0
 20
1471.786335
 30
0.0
 11
1000.0
 21
-1128.213665
 31
0.0
  0
LINE
  5
38
  8
HIBINO-BASE
  6
CONTINUOUS
 62
     7
 10
100.0
 20
-903.21366500000011
 30
0.0
 11
1000.0
 21
-903.21366500000011
 31
0.0
  0
LINE
  5
39
  8
HIBINO-BASE
  6
CONTINUOUS
 62
     7
 10
100.0
 20
-1128.213665
 30
0.0
 11
100.0
 21
-903.21366500000011
 31
0.0
  0
TEXT
  5
3A
  8
HIBINO-BASE
 62
     7
 10
109.0
 20
-928.30059833333337
 30
0.0
 40
16.288411458333329
  1
NOTE
 41
0.8
 11
109.0
 21
-912.012186875
 31
0.0
 73
     3
  0
LINE
  5
3B
  8
HIBINO-BASE
  6
CONTINUOUS
 62
     7
 10
450.0
 20
-1128.213665
 30
0.0
 11
450.0
 21
-903.21366500000011
 31
0.0
  0
TEXT
  5
3C
  8
HIBINO-BASE
 62
     7
 10
459.0
 20
-928.30059833333337
 30
0.0
 40
16.288411458333329
  1
TITLE
 41
0.8
 11
459.0
 21
-912.012186875
 31
0.0
 73
     3
  0
TEXT
  5
3D
  8
HIBINO-BASE
 62
     7
 10
600.68389999999988
 20
-1192.3004430000001
 30
0.0
 40
36.000441796874988
  1
ヒビノ株式会社
 41
0.8
 11
600.68389999999988
 21
-1156.300001203125
 31
0.0
 73
     3
  0
LINE
  5
3E
  8
HIBINO-BASE
  6
CONTINUOUS
 62
     7
 10
100.0
 20
-1028.213665
 30
0.0
 11
1000.0
 21
-1028.213665
 31
0.0
  0
TEXT
  5
3F
  8
HIBINO-BASE
 62
     7
 10
584.0
 20
-1052.737398333333
 30
0.0
 40
16.288411458333329
  1
DRAWN
 41
0.8
 11
584.0
 21
-1036.4489868749999
 31
0.0
 73
     3
  0
TEXT
  5
40
  8
HIBINO-BASE
 62
     7
 10
334.0
 20
-1052.737398333333
 30
0.0
 40
16.288411458333329
  1
DATE
 41
0.8
 11
334.0
 21
-1036.4489868749999
 31
0.0
 73
     3
  0
TEXT
  5
41
  8
HIBINO-BASE
 62
     7
 10
111.0
 20
-1054.408226999999
 30
0.0
 40
16.288437109374989
  1
図面サイズ
 41
0.8
 11
111.0
 21
-1038.1197898906239
 31
0.0
 73
     3
  0
TEXT
  5
42
  8
HIBINO-BASE
 62
     7
 10
234.0
 20
-1052.737398333333
 30
0.0
 40
16.288411458333329
  1
SCALE
 41
0.8
 11
234.0
 21
-1036.4489868749999
 31
0.0
 73
     3
  0
TEXT
  5
43
  8
HIBINO-BASE
 62
     7
 10
459.0
 20
-1052.737398333333
 30
0.0
 40
16.288411458333329
  1
DESIGN
 41
0.8
 11
459.0
 21
-1036.4489868749999
 31
0.0
 73
     3
  0
TEXT
  5
44
  8
HIBINO-BASE
 62
     7
 10
834.0
 20
-1052.737398333333
 30
0.0
 40
16.288411458333329
  1
DRAWING NO.
 41
0.8
 11
834.0
 21
-1036.4489868749999
 31
0.0
 73
     3
  0
TEXT
  5
45
  8
HIBINO-BASE
 62
     7
 10
708.99999999999977
 20
-1052.737398333333
 30
0.0
 40
16.288411458333329
  1
CHECK
 41
0.8
 11
708.99999999999977
 21
-1036.4489868749999
 31
0.0
 73
     3
  0
LINE
  5
46
  8
HIBINO-BASE
  6
CONTINUOUS
 62
     7
 10
243.75
 20
-1115.713665
 30
0.0
 11
281.25
 21
-1078.213665
 31
0.0
  0
TEXT
  5
47
  8
HIBINO-BASE
 62
     7
 10
237.5
 20
-1089.3030983333331
 30
0.0
 40
16.288411458333329
  1
1
 41
0.8
 11
237.5
 21
-1073.0146868749989
 31
0.0
 73
     3
  0
LINE
  5
48
  8
HIBINO-BASE
  6
CONTINUOUS
 62
     7
 10
225.0
 20
-1128.213665
 30
0.0
 11
225.0
 21
-1028.213665
 31
0.0
  0
LINE
  5
49
  8
HIBINO-BASE
  6
CONTINUOUS
 62
     7
 10
325.0
 20
-1128.213665
 30
0.0
 11
325.0
 21
-1028.213665
 31
0.0
  0
LINE
  5
4A
  8
HIBINO-BASE
  6
CONTINUOUS
 62
     7
 10
574.99999999999989
 20
-1028.213665
 30
0.0
 11
574.99999999999989
 21
-1128.213665
 31
0.0
  0
LINE
  5
4B
  8
HIBINO-BASE
  6
CONTINUOUS
 62
     7
 10
825.0
 20
-1028.213665
 30
0.0
 11
825.0
 21
-1128.213665
 31
0.0
  0
LINE
  5
4C
  8
HIBINO-BASE
  6
CONTINUOUS
 62
     7
 10
699.99999999999989
 20
-1128.213665
 30
0.0
 11
699.99999999999989
 21
-1028.213665
 31
0.0
  0
TEXT
  5
4D
  8
HIBINO-BASE
 62
     7
 10
333.5653999999999
 20
-1099.5771983333329
 30
0.0
 40
16.288411458333329
  1
'05.12.
 41
0.8
 11
333.5653999999999
 21
-1083.2887868749999
 31
0.0
 73
     3
  0
TEXT
  5
4E
  8
HIBINO-BASE
 62
     7
 10
275.0
 20
-1108.0530983333331
 30
0.0
 40
16.288411458333329
  1
10
 41
0.8
 11
275.0
 21
-1091.7646868749989
 31
0.0
 73
     3
  0
TEXT
  5
4F
  8
HIBINO-BASE
 62
     7
 10
590.05810011034623
 20
-1099.5771983333329
 30
0.0
 40
16.288411458333329
  1
N.Sasaki
 41
0.8
 11
590.05810011034623
 21
-1083.2887868749999
 31
0.0
 73
     3
  0
TEXT
  5
50
  8
HIBINO-BASE
 62
     7
 10
138.83333333333351
 20
-1108.453665
 30
0.0
 40
32.576822916666671
  1
A4
 41
0.8
 11
138.83333333333351
 21
-1075.876842083333
 31
0.0
 73
     3
  0
LINE
  5
51
  8
SIDE-DOWN-18_5
  6
STYLE_11
 62
     7
 10
-121.06405453764761
 20
-658.09748733253946
 30
0.0
 11
-112.4999999999999
 21
-683.69274834931753
 31
0.0
  0
LINE
  5
52
  8
SIDE-DOWN-18_5
  6
STYLE_11
 62
     7
 10
-126.6352159963797
 20
-661.81456565914596
 30
0.0
 11
-112.4999999999999
 21
-704.06027315264964
 31
0.0
  0
LINE
  5
53
  8
SIDE-DOWN-18_5
  6
STYLE_11
 62
     7
 10
-132.01321504280199
 20
-665.75709553177569
 30
0.0
 11
-112.4999999999999
 21
-724.07594790496671
 31
0.0
  0
TEXT
  5
54
  8
SIDE-DOWN-18_5
 62
     7
 10
-201.90429687499989
 20
-945.1416015625
 30
0.0
 40
20.666122436523441
  1
注1
 50
90.0
 41
0.8
 11
-222.5704193115233
 21
-945.1416015625
 31
0.0
 73
     3
  0
LINE
  5
55
  8
SIDE-DOWN-18_5
  6
STYLE_11
 62
     7
 10
57.741458690791291
 20
-776.59218564971832
 30
0.0
 11
74.136489841156703
 21
-825.59176871251645
 31
0.0
  0
LINE
  5
56
  8
SIDE-DOWN-18_5
  6
STYLE_11
 62
     7
 10
-66.183960062490655
 20
-862.5
 30
0.0
 11
-60.259226396431487
 21
-880.20716241600735
 31
0.0
  0
LINE
  5
57
  8
SIDE-DOWN-18_5
  6
STYLE_11
 62
     7
 10
-55.019989160070409
 20
-883.26343841732864
 30
0.0
 11
73.301134843144723
 21
-827.4680038106975
 31
0.0
  0
LINE
  5
58
  8
SIDE-DOWN-18_5
  6
STYLE_11
 62
     7
 10
-21.353047149371729
 20
-862.5
 30
0.0
 11
-19.564033166251999
 21
-867.84679918948689
 31
0.0
  0
LINE
  5
59
  8
SIDE-DOWN-18_5
  6
STYLE_11
 62
     7
 10
-59.486808973689577
 20
-862.5
 30
0.0
 11
-53.591491678383939
 21
-880.11924615107762
 31
0.0
  0
LINE
  5
5A
  8
SIDE-DOWN-18_5
  6
STYLE_11
 62
     7
 10
-52.67193050465211
 20
-862.5
 30
0.0
 11
-46.905171319299271
 21
-879.73502646102327
 31
0.0
  0
LINE
  5
5B
  8
SIDE-DOWN-18_5
  6
STYLE_11
 62
     7
 10
-57.141712553407061
 20
-882.31879585487366
 30
0.0
 11
-57.446129373504739
 21
-881.40898988224126
 31
0.0
  0
ARC
  5
5C
  8
SIDE-DOWN-18_5
  6
STYLE_11
 62
     7
 10
-55.648051586979719
 20
-881.81902388658398
 30
0.0
 40
1.5750540000001101
 50
198.4999999999894
 51
293.49999999999631
  0
ARC
  5
5D
  8
SIDE-DOWN-18_5
  6
STYLE_11
 62
     7
 10
-58.331919592581833
 20
-879.56229458019459
 30
0.0
 40
2.0323302000001449
 50
198.4999999999973
 51
288.5000000000058
  0
LINE
  5
5E
  8
SIDE-DOWN-18_5
  6
STYLE_11
 62
     7
 10
-57.687051756768952
 20
-881.4896013840447
 30
0.0
 11
-53.591491678384401
 21
-880.11924615107762
 31
0.0
  0
ARC
  5
5F
  8
SIDE-DOWN-18_5
  6
STYLE_11
 62
     7
 10
72.695037885243067
 20
-826.07407179025245
 30
0.0
 40
1.51999999999998
 50
293.49993312980428
 51
18.500000000001311
  0
LINE
  5
60
  8
SIDE-DOWN-18_5
  6
STYLE_11
 62
     7
 10
42.615436194326413
 20
-732.3252880198055
 30
0.0
 11
42.803651619340698
 21
-731.94778627891901
 31
0.0
  0
LINE
  5
61
  8
SIDE-DOWN-18_5
  6
STYLE_11
 62
     7
 10
-130.73077607476469
 20
-663.18492089211315
 30
0.0
 11
-126.6352159963802
 21
-661.81456565914596
 31
0.0
  0
LINE
  5
62
  8
SIDE-DOWN-18_5
  6
STYLE_11
 62
     7
 10
-130.48985369150051
 20
-663.10430939030948
 30
0.0
 11
-130.79427051159871
 21
-662.19450341767765
 31
0.0
  0
ARC
  5
63
  8
SIDE-DOWN-18_5
  6
STYLE_11
 62
     7
 10
-129.30060954517131
 20
-661.69473144938786
 30
0.0
 40
1.575053999999892
 50
103.5000000000054
 51
198.5000000000008
  0
ARC
  5
64
  8
SIDE-DOWN-18_5
  6
STYLE_11
 62
     7
 10
-130.0859082389519
 20
-665.11222769596316
 30
0.0
 40
2.0323302000000019
 50
108.5000000000054
 51
198.49999999999849
  0
LINE
  5
65
  8
SIDE-DOWN-18_5
  6
STYLE_11
 62
     7
 10
-129.66829501231439
 20
-660.16316922249484
 30
0.0
 11
-112.4999999999999
 21
-656.04145316949018
 31
0.0
  0
TEXT
  5
66
  8
SIDE-DOWN-18_5
 62
     7
 10
-95.141601562499915
 20
-448.09570312500011
 30
0.0
 40
20.666122436523441
  1
注1
 41
0.8
 11
-95.141601562499915
 21
-427.42958068847668
 31
0.0
 73
     3
  0
LINE
  5
67
  8
SIDE-DOWN-18_5
  6
CONTINUOUS
 62
     7
 10
-132.11823843895161
 20
-645.11222769596316
 30
0.0
 11
-132.11823843895161
 21
-480.0
 31
0.0
  0
LINE
  5
68
  8
SIDE-DOWN-18_5
  6
CONTINUOUS
 62
     7
 10
-99.999999999999915
 20
-599.29728640000019
 30
0.0
 11
-99.999999999999915
 21
-480.0
 31
0.0
  0
LINE
  5
69
  8
SIDE-DOWN-18_5
  6
CONTINUOUS
 62
     7
 10
-99.999999999999915
 20
-500.0
 30
0.0
 11
-132.11823843895161
 21
-500.0
 31
0.0
  0
LINE
  5
6A
  8
SIDE-DOWN-18_5
  6
CONTINUOUS
 62
     7
 10
-132.11823843895161
 20
-500.0
 30
0.0
 11
-182.11823843895161
 21
-500.0
 31
0.0
  0
LINE
  5
6B
  8
SIDE-DOWN-18_5
  6
CONTINUOUS
 62
     7
 10
-132.11823843895161
 20
-500.0
 30
0.0
 11
-157.12446402488911
 21
-506.70039795150251
 31
0.0
  0
LINE
  5
6C
  8
SIDE-DOWN-18_5
  6
CONTINUOUS
 62
     7
 10
-132.11823843895161
 20
-500.0
 30
0.0
 11
-157.12446402488911
 21
-493.29960204849772
 31
0.0
  0
LINE
  5
6D
  8
SIDE-DOWN-18_5
  6
CONTINUOUS
 62
     7
 10
-99.999999999999915
 20
-500.0
 30
0.0
 11
-39.722222222222022
 21
-500.0
 31
0.0
  0
LINE
  5
6E
  8
SIDE-DOWN-18_5
  6
CONTINUOUS
 62
     7
 10
-99.999999999999915
 20
-500.0
 30
0.0
 11
-74.993774414062401
 21
-493.29960204849772
 31
0.0
  0
LINE
  5
6F
  8
SIDE-DOWN-18_5
  6
CONTINUOUS
 62
     7
 10
-99.999999999999915
 20
-500.0
 30
0.0
 11
-74.993774414062401
 21
-506.70039795150251
 31
0.0
  0
TEXT
  5
70
  8
SIDE-DOWN-18_5
 62
     7
 10
-74.999999999999787
 20
-490.06111111111107
 30
0.0
 40
27.147352430555561
  1
32
 41
0.8
 11
-74.999999999999787
 21
-462.91375868055559
 31
0.0
 73
     3
  0
LINE
  5
71
  8
SIDE-DOWN-18_5
  6
CONTINUOUS
 62
     7
 10
-75.648051586979733
 20
-883.39407788657638
 30
0.0
 11
-169.9999999999998
 21
-883.39407788657638
 31
0.0
  0
LINE
  5
72
  8
SIDE-DOWN-18_5
  6
CONTINUOUS
 62
     7
 10
-116.1385649999996
 20
-849.99999999999272
 30
0.0
 11
-169.9999999999998
 21
-849.99999999999272
 31
0.0
  0
LINE
  5
73
  8
SIDE-DOWN-18_5
  6
CONTINUOUS
 62
     7
 10
-149.9999999999998
 20
-849.99999999999272
 30
0.0
 11
-149.9999999999998
 21
-883.39407788657638
 31
0.0
  0
LINE
  5
74
  8
SIDE-DOWN-18_5
  6
CONTINUOUS
 62
     7
 10
-149.9999999999998
 20
-883.39407788657638
 30
0.0
 11
-149.9999999999998
 21
-935.27777777777771
 31
0.0
  0
LINE
  5
75
  8
SIDE-DOWN-18_5
  6
CONTINUOUS
 62
     7
 10
-149.9999999999998
 20
-883.39407788657638
 30
0.0
 11
-143.29960204849741
 21
-908.40030347251411
 31
0.0
  0
LINE
  5
76
  8
SIDE-DOWN-18_5
  6
CONTINUOUS
 62
     7
 10
-149.9999999999998
 20
-883.39407788657638
 30
0.0
 11
-156.70039795150231
 21
-908.40030347251354
 31
0.0
  0
LINE
  5
77
  8
SIDE-DOWN-18_5
  6
CONTINUOUS
 62
     7
 10
-149.9999999999998
 20
-849.99999999999272
 30
0.0
 11
-149.9999999999998
 21
-799.99999999999272
 31
0.0
  0
LINE
  5
78
  8
SIDE-DOWN-18_5
  6
CONTINUOUS
 62
     7
 10
-149.9999999999998
 20
-849.99999999999272
 30
0.0
 11
-156.70039795150231
 21
-824.99377441405488
 31
0.0
  0
LINE
  5
79
  8
SIDE-DOWN-18_5
  6
CONTINUOUS
 62
     7
 10
-149.9999999999998
 20
-849.99999999999272
 30
0.0
 11
-143.29960204849741
 21
-824.99377441405488
 31
0.0
  0
TEXT
  5
7A
  8
SIDE-DOWN-18_5
 62
     7
 10
-159.93888888888881
 20
-935.27777777777771
 30
0.0
 40
27.147352430555561
  1
33
 50
90.0
 41
0.8
 11
-187.0862413194443
 21
-935.27777777777771
 31
0.0
 73
     3
  0
LINE
  5
7B
  8
SIDE-UP18_5
  6
STYLE_11
 62
     7
 10
57.741458690791291
 20
-705.03070824069073
 30
0.0
 11
79.496409108821922
 21
-640.0120150611051
 31
0.0
  0
LINE
  5
7C
  8
SIDE-UP18_5
  6
STYLE_11
 62
     7
 10
-125.3707468008364
 20
-802.41853410744466
 30
0.0
 11
-121.27518672245181
 21
-803.7888893404122
 31
0.0
  0
ARC
  5
7D
  8
SIDE-UP18_5
  6
STYLE_11
 62
     7
 10
-124.72587896502399
 20
-800.49122730359522
 30
0.0
 40
2.0323302000001449
 50
161.5000000000027
 51
251.50000000000651
  0
ARC
  5
7E
  8
SIDE-UP18_5
  6
STYLE_11
 62
     7
 10
-123.94058027124299
 20
-803.90872355017029
 30
0.0
 40
1.5750540000001809
 50
161.50000000000281
 51
256.49999999999642
  0
LINE
  5
7F
  8
SIDE-UP18_5
  6
STYLE_11
 62
     7
 10
-125.43424123767031
 20
-803.40895158188061
 30
0.0
 11
-125.12982441757261
 21
-802.49914560924822
 31
0.0
  0
LINE
  5
80
  8
SIDE-UP18_5
  6
STYLE_11
 62
     7
 10
-121.27518672245181
 20
-803.7888893404122
 30
0.0
 11
-112.4999999999999
 21
-777.56262073775883
 31
0.0
  0
LINE
  5
81
  8
SIDE-UP18_5
  6
STYLE_11
 62
     7
 10
-126.6531857688736
 20
-799.84635946778269
 30
0.0
 11
-112.4999999999999
 21
-757.54694598544222
 31
0.0
  0
LINE
  5
82
  8
SIDE-UP18_5
  6
STYLE_11
 62
     7
 10
-115.704024670469
 20
-807.50596589398003
 30
0.0
 11
-112.4999999999999
 21
-797.93014554109129
 31
0.0
  0
LINE
  5
83
  8
SIDE-UP18_5
  6
STYLE_11
 62
     7
 10
-124.3082576788478
 20
-805.44026168964251
 30
0.0
 11
-112.4999999999994
 21
-808.27518811589584
 31
0.0
  0
TEXT
  5
84
  8
SIDE-UP18_5
 62
     7
 10
-251.9042968749998
 20
-570.1416015625
 30
0.0
 40
20.666122436523441
  1
注1
 50
90.0
 41
0.8
 11
-272.57041931152332
 21
-570.1416015625
 31
0.0
 73
     3
  0
LINE
  5
85
  8
SIDE-UP18_5
  6
STYLE_11
 62
     7
 10
-49.659951826604257
 20
-582.33999249480871
 30
0.0
 11
78.661057803416597
 21
-638.13578156851588
 31
0.0
  0
ARC
  5
86
  8
SIDE-UP18_5
  6
STYLE_11
 62
     7
 10
-52.97189031865345
 20
-586.04116041936356
 30
0.0
 40
2.0323302000000729
 50
71.500000000008797
 51
161.50000000000219
  0
LINE
  5
87
  8
SIDE-UP18_5
  6
STYLE_11
 62
     7
 10
-52.327022482841031
 20
-584.11385361551345
 30
0.0
 11
-48.231462404456018
 21
-585.48420884848065
 31
0.0
  0
ARC
  5
88
  8
SIDE-UP18_5
  6
STYLE_11
 62
     7
 10
-50.288022313051798
 20
-583.78443111297406
 30
0.0
 40
1.575053999999994
 50
66.499999999989058
 51
161.50000000000469
  0
LINE
  5
89
  8
SIDE-UP18_5
  6
STYLE_11
 62
     7
 10
-52.086100099576811
 20
-584.19446511731689
 30
0.0
 11
-51.78168327947914
 21
-583.28465914468472
 31
0.0
  0
ARC
  5
8A
  8
SIDE-UP18_5
  6
STYLE_11
 62
     7
 10
78.054957152908713
 20
-639.52971198336957
 30
0.0
 40
1.5199999999997409
 50
341.50000000000028
 51
66.499915090287928
  0
LINE
  5
8B
  8
SIDE-UP18_5
  6
STYLE_11
 62
     7
 10
-60.531966422724409
 20
-602.23086548972105
 30
0.0
 11
-54.899197122503558
 21
-585.39629258355103
 31
0.0
  0
LINE
  5
8C
  8
SIDE-UP18_5
  6
STYLE_11
 62
     7
 10
-47.01993686488585
 20
-602.23086548972105
 30
0.0
 11
-41.545141452120681
 21
-585.86842676549645
 31
0.0
  0
LINE
  5
8D
  8
SIDE-UP18_5
  6
STYLE_11
 62
     7
 10
-53.834815333923324
 20
-602.23086548972105
 30
0.0
 11
-48.231462404456018
 21
-585.48420884848065
 31
0.0
  0
LINE
  5
8E
  8
SIDE-UP18_5
  6
STYLE_11
 62
     7
 10
-15.701053509605471
 20
-602.23086548972105
 30
0.0
 11
-14.20402845512889
 21
-597.7567292205581
 31
0.0
  0
LINE
  5
8F
  8
SIDE-UP18_5
  6
CONTINUOUS
 62
     7
 10
-70.288022313051798
 20
-582.20937711298166
 30
0.0
 11
-219.99999999999989
 21
-582.20937711298166
 31
0.0
  0
LINE
  5
90
  8
SIDE-UP18_5
  6
CONTINUOUS
 62
     7
 10
-116.1385649999996
 20
-614.73051880000742
 30
0.0
 11
-219.99999999999989
 21
-614.73051880000742
 31
0.0
  0
LINE
  5
91
  8
SIDE-UP18_5
  6
CONTINUOUS
 62
     7
 10
-199.99999999999989
 20
-614.73051880000742
 30
0.0
 11
-199.99999999999989
 21
-582.20937711298166
 31
0.0
  0
LINE
  5
92
  8
SIDE-UP18_5
  6
CONTINUOUS
 62
     7
 10
-199.99999999999989
 20
-582.20937711298166
 30
0.0
 11
-199.99999999999989
 21
-479.44444444444463
 31
0.0
  0
LINE
  5
93
  8
SIDE-UP18_5
  6
CONTINUOUS
 62
     7
 10
-199.99999999999989
 20
-582.20937711298166
 30
0.0
 11
-206.7003979515024
 21
-557.20315152704404
 31
0.0
  0
LINE
  5
94
  8
SIDE-UP18_5
  6
CONTINUOUS
 62
     7
 10
-199.99999999999989
 20
-582.20937711298166
 30
0.0
 11
-193.29960204849741
 21
-557.20315152704404
 31
0.0
  0
LINE
  5
95
  8
SIDE-UP18_5
  6
CONTINUOUS
 62
     7
 10
-199.99999999999989
 20
-614.73051880000742
 30
0.0
 11
-199.99999999999989
 21
-664.73051880000742
 31
0.0
  0
LINE
  5
96
  8
SIDE-UP18_5
  6
CONTINUOUS
 62
     7
 10
-199.99999999999989
 20
-614.73051880000742
 30
0.0
 11
-193.29960204849741
 21
-639.73674438594492
 31
0.0
  0
LINE
  5
97
  8
SIDE-UP18_5
  6
CONTINUOUS
 62
     7
 10
-199.99999999999989
 20
-614.73051880000742
 30
0.0
 11
-206.7003979515024
 21
-639.73674438594492
 31
0.0
  0
TEXT
  5
98
  8
SIDE-UP18_5
 62
     7
 10
-209.93888888888881
 20
-550.0
 30
0.0
 40
27.147352430555561
  1
32.5
 50
90.0
 41
0.8
 11
-237.0862413194443
 21
-550.0
 31
0.0
 73
     3
  0
LINE
  5
99
  8
TOP22
  6
STYLE_11
 62
     7
 10
-511.16281864335667
 20
-245.88473508085571
 30
0.0
 11
-439.82032403657462
 21
-318.9921055228744
 31
0.0
  0
TEXT
  5
9A
  8
TOP22
 62
     7
 10
-401.90429687499977
 20
-472.50271267361109
 30
0.0
 40
20.666122436523441
  1
注1
 50
90.0
 41
0.8
 11
-422.57041931152321
 21
-472.50271267361109
 31
0.0
 73
     3
  0
LINE
  5
9B
  8
TOP22
  6
STYLE_11
 62
     7
 10
-591.1795675603538
 20
-418.02879472529543
 30
0.0
 11
-592.33918596044646
 21
-415.15863846824641
 31
0.0
  0
ARC
  5
9C
  8
TOP22
  6
STYLE_11
 62
     7
 10
-693.20762786580372
 20
60.677178367068862
 30
0.0
 40
489.45799999999991
 50
282.0315983943446
 51
286.50564577532867
  0
ARC
  5
9D
  8
TOP22
  6
STYLE_11
 62
     7
 10
-694.06412126346447
 20
62.797073915656767
 30
0.0
 40
489.45800000000003
 50
282.5364051631733
 51
285.60845929951961
  0
ARC
  5
9E
  8
TOP22
  6
STYLE_11
 62
     7
 10
-590.53566600926911
 20
-402.78943009480111
 30
0.0
 40
12.499999999999799
 50
207.75776677851559
 51
282.53640516317409
  0
ARC
  5
9F
  8
TOP22
  6
STYLE_11
 62
     7
 10
-520.10897781465428
 20
-254.61492614874351
 30
0.0
 40
12.499999999999879
 50
44.300000000000168
 51
112.0000000000001
  0
LINE
  5
A0
  8
TOP22
  6
STYLE_11
 62
     7
 10
-538.45963278566433
 20
-248.54738773481421
 30
0.0
 11
-524.79156023235328
 21
-243.0251279666588
 31
0.0
  0
ARC
  5
A1
  8
TOP22
  6
STYLE_11
 62
     7
 10
-445.11269741178012
 20
-344.03473694261322
 30
0.0
 40
12.49999999999986
 50
301.46359483682568
 51
17.300000000000011
  0
ARC
  5
A2
  8
TOP22
  6
STYLE_11
 62
     7
 10
-694.06412126346447
 20
62.797073915657002
 30
0.0
 40
489.45799999999991
 50
299.91016973591252
 51
301.46359483682681
  0
ARC
  5
A3
  8
TOP22
  6
STYLE_11
 62
     7
 10
-693.20762786580372
 20
60.677178367068862
 30
0.0
 40
489.4579999999998
 50
299.79457008613622
 51
301.96840160565552
  0
LINE
  5
A4
  8
TOP22
  6
STYLE_11
 62
     7
 10
-434.06336119753593
 20
-354.54972685098852
 30
0.0
 11
-435.24420719959971
 21
-351.62703043537073
 31
0.0
  0
LINE
  5
A5
  8
TOP22
  6
STYLE_11
 62
     7
 10
-433.17818741799562
 20
-340.317551016641
 30
0.0
 11
-439.82032403657462
 21
-318.9921055228744
 31
0.0
  0
TEXT
  5
A6
  8
TOP22
 62
     7
 10
-395.1416015625
 20
-250.45681423611109
 30
0.0
 40
20.666122436523441
  1
注1
 41
0.8
 11
-395.1416015625
 21
-229.79069179958759
 31
0.0
 73
     3
  0
LINE
  5
A7
  8
TOP22
  6
CONTINUOUS
 62
     7
 10
-571.17956756035369
 20
-418.02879472529543
 30
0.0
 11
-329.99999999999989
 21
-418.02879472529543
 31
0.0
  0
LINE
  5
A8
  8
TOP22
  6
CONTINUOUS
 62
     7
 10
-537.29000000000042
 20
-402.36111111111109
 30
0.0
 11
-329.99999999999989
 21
-402.36111111111109
 31
0.0
  0
LINE
  5
A9
  8
TOP22
  6
CONTINUOUS
 62
     7
 10
-349.99999999999977
 20
-402.36111111111109
 30
0.0
 11
-349.99999999999977
 21
-418.02879472529543
 31
0.0
  0
LINE
  5
AA
  8
TOP22
  6
CONTINUOUS
 62
     7
 10
-349.99999999999977
 20
-418.02879472529543
 30
0.0
 11
-349.99999999999977
 21
-462.6388888888888
 31
0.0
  0
LINE
  5
AB
  8
TOP22
  6
CONTINUOUS
 62
     7
 10
-349.99999999999977
 20
-418.02879472529543
 30
0.0
 11
-343.29960204849749
 21
-443.03502031123293
 31
0.0
  0
LINE
  5
AC
  8
TOP22
  6
CONTINUOUS
 62
     7
 10
-349.99999999999977
 20
-418.02879472529543
 30
0.0
 11
-356.7003979515024
 21
-443.03502031123293
 31
0.0
  0
LINE
  5
AD
  8
TOP22
  6
CONTINUOUS
 62
     7
 10
-349.99999999999977
 20
-402.36111111111109
 30
0.0
 11
-349.99999999999977
 21
-352.36111111111109
 31
0.0
  0
LINE
  5
AE
  8
TOP22
  6
CONTINUOUS
 62
     7
 10
-349.99999999999977
 20
-402.36111111111109
 30
0.0
 11
-356.7003979515024
 21
-377.35488552517359
 31
0.0
  0
LINE
  5
AF
  8
TOP22
  6
CONTINUOUS
 62
     7
 10
-349.99999999999977
 20
-402.36111111111109
 30
0.0
 11
-343.29960204849738
 21
-377.35488552517359
 31
0.0
  0
TEXT
  5
B0
  8
TOP22
 62
     7
 10
-359.93888888888881
 20
-462.6388888888888
 30
0.0
 40
27.147352430555561
  1
16
 50
90.0
 41
0.8
 11
-387.08624131944441
 21
-462.6388888888888
 31
0.0
 73
     3
  0
LINE
  5
B1
  8
TOP22
  6
CONTINUOUS
 62
     7
 10
-432.61269741178148
 20
-324.03473694261328
 30
0.0
 11
-432.61269741178148
 21
-282.36111111111109
 31
0.0
  0
LINE
  5
B2
  8
TOP22
  6
CONTINUOUS
 62
     7
 10
-464.57999999999993
 20
-339.84689591111078
 30
0.0
 11
-464.57999999999993
 21
-282.36111111111109
 31
0.0
  0
LINE
  5
B3
  8
TOP22
  6
CONTINUOUS
 62
     7
 10
-464.57999999999993
 20
-302.36111111111109
 30
0.0
 11
-432.61269741178148
 21
-302.36111111111109
 31
0.0
  0
LINE
  5
B4
  8
TOP22
  6
CONTINUOUS
 62
     7
 10
-432.61269741178148
 20
-302.36111111111109
 30
0.0
 11
-347.0833333333332
 21
-302.36111111111109
 31
0.0
  0
LINE
  5
B5
  8
TOP22
  6
CONTINUOUS
 62
     7
 10
-432.61269741178148
 20
-302.36111111111109
 30
0.0
 11
-407.60647182584393
 21
-295.66071315960858
 31
0.0
  0
LINE
  5
B6
  8
TOP22
  6
CONTINUOUS
 62
     7
 10
-432.61269741178148
 20
-302.36111111111109
 30
0.0
 11
-407.60647182584393
 21
-309.0615090626136
 31
0.0
  0
LINE
  5
B7
  8
TOP22
  6
CONTINUOUS
 62
     7
 10
-464.57999999999993
 20
-302.36111111111109
 30
0.0
 11
-514.57999999999993
 21
-302.36111111111109
 31
0.0
  0
LINE
  5
B8
  8
TOP22
  6
CONTINUOUS
 62
     7
 10
-464.57999999999993
 20
-302.36111111111109
 30
0.0
 11
-489.58622558593743
 21
-309.0615090626136
 31
0.0
  0
LINE
  5
B9
  8
TOP22
  6
CONTINUOUS
 62
     7
 10
-464.57999999999993
 20
-302.36111111111109
 30
0.0
 11
-489.58622558593743
 21
-295.66071315960858
 31
0.0
  0
TEXT
  5
BA
  8
TOP22
 62
     7
 10
-382.36111111111092
 20
-292.42222222222222
 30
0.0
 40
27.147352430555561
  1
32
 41
0.8
 11
-382.36111111111092
 21
-265.27486979166667
 31
0.0
 73
     3
  0
LINE
  5
BB
  8
BRACKET
  6
STYLE_11
 62
     7
 10
77.780355599999695
 20
-743.17255805631544
 30
0.0
 11
86.780355599999695
 21
-743.17255805631544
 31
0.0
  0
LINE
  5
BC
  8
BRACKET
  6
STYLE_11
 62
     7
 10
77.780355599999695
 20
-734.72881036941715
 30
0.0
 11
86.780355599999695
 21
-734.72881036941715
 31
0.0
  0
LINE
  5
BD
  8
BRACKET
  6
STYLE_11
 62
     7
 10
77.780355599999695
 20
-751.61630574321305
 30
0.0
 11
86.780355599999695
 21
-751.61630574321305
 31
0.0
  0
CIRCLE
  5
BE
  8
BRACKET
  6
STYLE_11
 62
     7
 10
-557.29000000000042
 20
-275.73075551111077
 30
0.0
 40
17.25
  0
LINE
  5
BF
  8
BRACKET
  6
STYLE_11
 62
     7
 10
-562.78999999999951
 20
-259.38106132436849
 30
0.0
 11
-562.78999999999951
 21
-224.5807555111104
 31
0.0
  0
LINE
  5
C0
  8
BRACKET
  6
STYLE_11
 62
     7
 10
-551.78999999999996
 20
-259.38106132436849
 30
0.0
 11
-551.78999999999996
 21
-224.5807555111104
 31
0.0
  0
LINE
  5
C1
  8
BRACKET
  6
STYLE_11
 62
     7
 10
-592.28999999999985
 20
-197.58075551111071
 30
0.0
 11
-522.28999999999996
 21
-197.58075551111071
 31
0.0
  0
ARC
  5
C2
  8
BRACKET
  6
STYLE_11
 62
     7
 10
-557.29000000000042
 20
-134.83075551110969
 30
0.0
 40
76.250000000000668
 50
245.5076213631327
 51
294.49237863686761
  0
LINE
  5
C3
  8
BRACKET
  6
STYLE_11
 62
     7
 10
-566.7900000000003
 20
-215.58075551111071
 30
0.0
 11
-566.7900000000003
 21
-213.08075551111071
 31
0.0
  0
LINE
  5
C4
  8
BRACKET
  6
STYLE_11
 62
     7
 10
-547.78999999999985
 20
-215.58075551111071
 30
0.0
 11
-547.78999999999985
 21
-213.08075551111071
 31
0.0
  0
LINE
  5
C5
  8
BRACKET
  6
STYLE_11
 62
     7
 10
-567.04000000000042
 20
-224.5807555111104
 30
0.0
 11
-547.54000000000042
 21
-224.5807555111104
 31
0.0
  0
LINE
  5
C6
  8
BRACKET
  6
STYLE_11
 62
     7
 10
-567.04000000000042
 20
-215.58075551111071
 30
0.0
 11
-547.54000000000042
 21
-215.58075551111071
 31
0.0
  0
LINE
  5
C7
  8
BRACKET
  6
STYLE_11
 62
     7
 10
-567.04000000000042
 20
-224.5807555111104
 30
0.0
 11
-567.04000000000042
 21
-215.58075551111071
 31
0.0
  0
LINE
  5
C8
  8
BRACKET
  6
STYLE_11
 62
     7
 10
-562.16499999999985
 20
-224.5807555111104
 30
0.0
 11
-562.16499999999985
 21
-215.58075551111071
 31
0.0
  0
LINE
  5
C9
  8
BRACKET
  6
STYLE_11
 62
     7
 10
-552.41499999999985
 20
-224.5807555111104
 30
0.0
 11
-552.41499999999985
 21
-215.58075551111071
 31
0.0
  0
LINE
  5
CA
  8
BRACKET
  6
STYLE_11
 62
     7
 10
-547.54000000000042
 20
-224.58075551111091
 30
0.0
 11
-547.54000000000042
 21
-215.58075551111071
 31
0.0
  0
LINE
  5
CB
  8
BRACKET
  6
STYLE_11
 62
     7
 10
-566.0399999999994
 20
-203.58075551111071
 30
0.0
 11
-548.53999999999985
 21
-203.58075551111071
 31
0.0
  0
LINE
  5
CC
  8
BRACKET
  6
STYLE_11
 62
     7
 10
-567.79000000000042
 20
-213.08075551111071
 30
0.0
 11
-546.79000000000042
 21
-213.08075551111071
 31
0.0
  0
LINE
  5
CD
  8
BRACKET
  6
STYLE_11
 62
     7
 10
-567.79000000000042
 20
-210.35434454129381
 30
0.0
 11
-567.79000000000042
 21
-213.08075551111071
 31
0.0
  0
LINE
  5
CE
  8
BRACKET
  6
STYLE_11
 62
     7
 10
-566.0399999999994
 20
-210.577042548826
 30
0.0
 11
-566.0399999999994
 21
-203.58075551111071
 31
0.0
  0
ARC
  5
CF
  8
BRACKET
  6
STYLE_11
 62
     7
 10
-586.82826909813673
 20
-199.66942575261081
 30
0.0
 40
5.0000000000001181
 50
190.30484646876641
 51
245.507621363135
  0
LINE
  5
D0
  8
BRACKET
  6
STYLE_11
 62
     7
 10
-592.28999999999985
 20
-197.58075551111071
 30
0.0
 11
-591.74761864863603
 21
-200.5638529436109
 31
0.0
  0
LINE
  5
D1
  8
BRACKET
  6
STYLE_11
 62
     7
 10
-546.79000000000042
 20
-213.08075551111071
 30
0.0
 11
-546.79000000000042
 21
-210.35434454129381
 31
0.0
  0
LINE
  5
D2
  8
BRACKET
  6
STYLE_11
 62
     7
 10
-548.53999999999985
 20
-210.577042548826
 30
0.0
 11
-548.53999999999985
 21
-203.58075551111071
 31
0.0
  0
ARC
  5
D3
  8
BRACKET
  6
STYLE_11
 62
     7
 10
-527.75173090186343
 20
-199.6694257526114
 30
0.0
 40
5.0000000000000941
 50
294.49237863686932
 51
349.69515353123359
  0
LINE
  5
D4
  8
BRACKET
  6
STYLE_11
 62
     7
 10
-522.83238135136389
 20
-200.56385294361161
 30
0.0
 11
-522.28999999999996
 21
-197.58075551111071
 31
0.0
  0
ARC
  5
D5
  8
BRACKET
  6
STYLE_11
 62
     7
 10
26.630355599999621
 20
-743.17255805631544
 30
0.0
 40
17.250000000000071
 50
18.59282254942736
 51
341.4071774505735
  0
LINE
  5
D6
  8
BRACKET
  6
STYLE_11
 62
     7
 10
77.780355599999695
 20
-734.72881036941715
 30
0.0
 11
77.780355599999695
 21
-751.61630574321305
 31
0.0
  0
LINE
  5
D7
  8
BRACKET
  6
STYLE_11
 62
     7
 10
42.980049786742057
 20
-737.67255805631532
 30
0.0
 11
42.980049786742057
 21
-748.67255805631544
 31
0.0
  0
LINE
  5
D8
  8
BRACKET
  6
STYLE_11
 62
     7
 10
42.980049786742057
 20
-748.67255805631544
 30
0.0
 11
77.780355599999695
 21
-748.67255805631544
 31
0.0
  0
LINE
  5
D9
  8
BRACKET
  6
STYLE_11
 62
     7
 10
42.980049786742057
 20
-737.67255805631532
 30
0.0
 11
77.780355599999695
 21
-737.67255805631532
 31
0.0
  0
LINE
  5
DA
  8
BRACKET
  6
STYLE_11
 62
     7
 10
91.280355599999695
 20
-698.17255805631555
 30
0.0
 11
104.78035559999969
 21
-698.17255805631555
 31
0.0
  0
LINE
  5
DB
  8
BRACKET
  6
STYLE_11
 62
     7
 10
91.280355599999695
 20
-753.6725580563151
 30
0.0
 11
91.280355599999695
 21
-788.17255805631532
 31
0.0
  0
LINE
  5
DC
  8
BRACKET
  6
STYLE_11
 62
     7
 10
91.280355599999695
 20
-788.17255805631532
 30
0.0
 11
104.78035559999969
 21
-788.17255805631532
 31
0.0
  0
LINE
  5
DD
  8
BRACKET
  6
STYLE_11
 62
     7
 10
91.413229892828255
 20
-734.17255805631544
 30
0.0
 11
99.280355600000149
 21
-734.17255805631544
 31
0.0
  0
LINE
  5
DE
  8
BRACKET
  6
STYLE_11
 62
     7
 10
91.413229892828255
 20
-752.17255805631532
 30
0.0
 11
99.280355600000149
 21
-752.17255805631532
 31
0.0
  0
LINE
  5
DF
  8
BRACKET
  6
STYLE_11
 62
     7
 10
91.280355599999695
 20
-732.6725580563151
 30
0.0
 11
89.280355599999695
 21
-732.6725580563151
 31
0.0
  0
LINE
  5
E0
  8
BRACKET
  6
STYLE_11
 62
     7
 10
89.280355600000149
 20
-753.6725580563151
 30
0.0
 11
91.280355599999695
 21
-753.6725580563151
 31
0.0
  0
LINE
  5
E1
  8
BRACKET
  6
STYLE_11
 62
     7
 10
89.280355599999695
 20
-732.67255805631544
 30
0.0
 11
89.280355599999695
 21
-753.6725580563151
 31
0.0
  0
ARC
  5
E2
  8
BRACKET
  6
STYLE_11
 62
     7
 10
-18.719644400021661
 20
-743.17255805631612
 30
0.0
 40
110.5000000000217
 50
354.54737801218891
 51
5.4526219878118241
  0
LINE
  5
E3
  8
BRACKET
  6
STYLE_11
 62
     7
 10
104.78035559999969
 20
-788.17255805631532
 30
0.0
 11
104.78035559999969
 21
-698.17255805631555
 31
0.0
  0
LINE
  5
E4
  8
BRACKET
  6
STYLE_11
 62
     7
 10
99.280355599999709
 20
-698.17255805631555
 30
0.0
 11
99.280355599999709
 21
-788.17255805631532
 31
0.0
  0
LINE
  5
E5
  8
BRACKET
  6
STYLE_11
 62
     7
 10
91.280355599999695
 20
-698.17255805631555
 30
0.0
 11
91.280355599999695
 21
-732.6725580563151
 31
0.0
  0
LINE
  5
E6
  8
BRACKET
  6
STYLE_11
 62
     7
 10
86.780355599999695
 20
-733.67255805631532
 30
0.0
 11
86.780355599999695
 21
-752.67255805631521
 31
0.0
  0
LINE
  5
E7
  8
BRACKET
  6
STYLE_11
 62
     7
 10
86.780355599999695
 20
-733.67255805631532
 30
0.0
 11
89.280355599999695
 21
-733.67255805631532
 31
0.0
  0
LINE
  5
E8
  8
BRACKET
  6
STYLE_11
 62
     7
 10
86.780355599999695
 20
-748.17255805631532
 30
0.0
 11
89.280355599999695
 21
-748.17255805631532
 31
0.0
  0
LINE
  5
E9
  8
BRACKET
  6
STYLE_11
 62
     7
 10
86.780355599999695
 20
-752.67255805631521
 30
0.0
 11
89.280355600000149
 21
-752.67255805631521
 31
0.0
  0
LINE
  5
EA
  8
BRACKET
  6
STYLE_12
 62
     7
 10
-100.0
 20
-740.81144694520435
 30
0.0
 11
154.78035559999981
 21
-740.81144694520435
 31
0.0
  0
LINE
  5
EB
  8
BRACKET
  6
STYLE_12
 62
     7
 10
-90.872388842962721
 20
-796.85708123957181
 30
0.0
 11
76.630355599999731
 21
-740.81144694520435
 31
0.0
  0
LINE
  5
EC
  8
BRACKET
  6
STYLE_12
 62
     7
 10
-90.872388842962721
 20
-684.76581265083723
 30
0.0
 11
76.630355599999731
 21
-740.81144694520435
 31
0.0
  0
LINE
  5
ED
  8
BRACKET
  6
STYLE_12
 62
     7
 10
-557.29000000000042
 20
-177.3611111111108
 30
0.0
 11
-557.29000000000042
 21
-427.36111111111092
 31
0.0
  0
LINE
  5
EE
  8
BRACKET
  6
STYLE_12
 62
     7
 10
-557.28999999999985
 20
-275.73075551111032
 30
0.0
 11
-500.48826903024059
 21
-416.31997308565161
 31
0.0
  0
LINE
  5
EF
  8
BRACKET
  6
STYLE_12
 62
     7
 10
-614.09173096975906
 20
-416.31997308565161
 30
0.0
 11
-557.29000000000042
 21
-275.73075551111077
 31
0.0
  0
LINE
  5
F0
  8
PATTERN_FILL
  6
CONTINUOUS
 62
     7
 10
429.84530166345559
 20
550.06750326438282
 30
0.0
 11
433.2647467356154
 21
553.48694833654247
 31
0.0
  0
LINE
  5
F1
  8
PATTERN_FILL
  6
CONTINUOUS
 62
     7
 10
430.21967983583812
 20
549.02766787439225
 30
0.0
 11
434.30458212560592
 21
553.11257016416005
 31
0.0
  0
LINE
  5
F2
  8
PATTERN_FILL
  6
CONTINUOUS
 62
     7
 10
430.63389339821128
 20
548.02766787439236
 30
0.0
 11
435.30458212560592
 21
552.69835660178705
 31
0.0
  0
LINE
  5
F3
  8
PATTERN_FILL
  6
CONTINUOUS
 62
     7
 10
431.33274999999958
 20
547.31231091380755
 30
0.0
 11
436.01993908619079
 21
551.99949999999865
 31
0.0
  0
LINE
  5
F4
  8
PATTERN_FILL
  6
CONTINUOUS
 62
     7
 10
432.33274999999958
 20
546.89809735143433
 30
0.0
 11
436.43415264856378
 21
550.99949999999865
 31
0.0
  0
LINE
  5
F5
  8
PATTERN_FILL
  6
CONTINUOUS
 62
     7
 10
433.33274999999981
 20
546.48388378906145
 30
0.0
 11
436.84836621093677
 21
549.99949999999842
 31
0.0
  0
LINE
  5
F6
  8
PATTERN_FILL
  6
CONTINUOUS
 62
     7
 10
435.7469635623728
 20
547.48388378906145
 30
0.0
 11
435.84836621093677
 21
547.58528643762543
 31
0.0
  0
LINE
  5
F7
  8
PATTERN_FILL
  6
CONTINUOUS
 62
     7
 10
446.51192666345543
 20
350.06800326438281
 30
0.0
 11
449.9313717356153
 21
353.4874483365428
 31
0.0
  0
LINE
  5
F8
  8
PATTERN_FILL
  6
CONTINUOUS
 62
     7
 10
446.88630483583808
 20
349.02816787439241
 30
0.0
 11
450.9712071256057
 21
353.11307016416009
 31
0.0
  0
LINE
  5
F9
  8
PATTERN_FILL
  6
CONTINUOUS
 62
     7
 10
447.30051839821118
 20
348.02816787439241
 30
0.0
 11
451.97120712560582
 21
352.69885660178721
 31
0.0
  0
LINE
  5
FA
  8
PATTERN_FILL
  6
CONTINUOUS
 62
     7
 10
447.99937499999942
 20
347.3128109138076
 30
0.0
 11
452.68656408619069
 21
351.99999999999892
 31
0.0
  0
LINE
  5
FB
  8
PATTERN_FILL
  6
CONTINUOUS
 62
     7
 10
448.99937499999942
 20
346.89859735143449
 30
0.0
 11
453.10077764856391
 21
350.99999999999892
 31
0.0
  0
LINE
  5
FC
  8
PATTERN_FILL
  6
CONTINUOUS
 62
     7
 10
449.9993749999997
 20
346.48438378906161
 30
0.0
 11
453.51499121093678
 21
349.99999999999881
 31
0.0
  0
LINE
  5
FD
  8
PATTERN_FILL
  6
CONTINUOUS
 62
     7
 10
452.41358856237281
 20
347.48438378906161
 30
0.0
 11
452.51499121093678
 21
347.58578643762559
 31
0.0
  0
LINE
  5
FE
  8
SPEC
  6
CONTINUOUS
 62
     7
 10
-725.0
 20
1371.786335
 30
0.0
 11
750.0
 21
1371.786335
 31
0.0
  0
LINE
  5
FF
  8
SPEC
  6
CONTINUOUS
 62
     7
 10
-725.0
 20
1334.286335
 30
0.0
 11
750.0
 21
1334.286335
 31
0.0
  0
LINE
  5
100
  8
SPEC
  6
CONTINUOUS
 62
     7
 10
-725.0
 20
1259.286335
 30
0.0
 11
750.0
 21
1259.286335
 31
0.0
  0
LINE
  5
101
  8
SPEC
  6
CONTINUOUS
 62
     7
 10
-725.0
 20
1296.786335
 30
0.0
 11
750.0
 21
1296.786335
 31
0.0
  0
LINE
  5
102
  8
SPEC
  6
CONTINUOUS
 62
     7
 10
-725.0
 20
1034.286335
 30
0.0
 11
750.0
 21
1034.286335
 31
0.0
  0
LINE
  5
103
  8
SPEC
  6
CONTINUOUS
 62
     7
 10
-725.0
 20
996.78633499999955
 30
0.0
 11
750.0
 21
996.78633499999955
 31
0.0
  0
LINE
  5
104
  8
SPEC
  6
CONTINUOUS
 62
     7
 10
-725.0
 20
846.78633500000001
 30
0.0
 11
750.0
 21
846.78633500000001
 31
0.0
  0
LINE
  5
105
  8
SPEC
  6
CONTINUOUS
 62
     7
 10
-725.0
 20
734.28633500000001
 30
0.0
 11
750.0
 21
734.28633500000001
 31
0.0
  0
LINE
  5
106
  8
SPEC
  6
CONTINUOUS
 62
     7
 10
-725.0
 20
771.78633500000001
 30
0.0
 11
750.0
 21
771.78633500000001
 31
0.0
  0
LINE
  5
107
  8
SPEC
  6
CONTINUOUS
 62
     7
 10
-725.0
 20
809.28633500000001
 30
0.0
 11
750.0
 21
809.28633500000001
 31
0.0
  0
LINE
  5
108
  8
SPEC
  6
CONTINUOUS
 62
     7
 10
-725.0
 20
1371.786335
 30
0.0
 11
-725.0
 21
621.78633500000001
 31
0.0
  0
TEXT
  5
109
  8
SPEC
 62
     7
 10
-712.49999999999989
 20
1385.7190349999989
 30
0.0
 40
24.4326171875
  1
仕様
 41
0.8
 11
-712.49999999999989
 21
1410.1516521874989
 31
0.0
 73
     3
  0
LINE
  5
10A
  8
SPEC
  6
CONTINUOUS
 62
     7
 10
-400.0
 20
1371.786335
 30
0.0
 11
-400.0
 21
621.78633499999978
 31
0.0
  0
LINE
  5
10B
  8
SPEC
  6
CONTINUOUS
 62
     7
 10
750.0
 20
1371.786335
 30
0.0
 11
750.0
 21
621.78633500000001
 31
0.0
  0
LINE
  5
10C
  8
SPEC
  6
CONTINUOUS
 62
     7
 10
-724.99999999999955
 20
1221.786335
 30
0.0
 11
750.0
 21
1221.786335
 31
0.0
  0
LINE
  5
10D
  8
SPEC
  6
CONTINUOUS
 62
     7
 10
-725.0
 20
1184.286335
 30
0.0
 11
750.0
 21
1184.286335
 31
0.0
  0
LINE
  5
10E
  8
SPEC
  6
CONTINUOUS
 62
     7
 10
-725.0
 20
1109.286335
 30
0.0
 11
750.0
 21
1109.286335
 31
0.0
  0
LINE
  5
10F
  8
SPEC
  6
CONTINUOUS
 62
     7
 10
-725.0
 20
884.28633499999955
 30
0.0
 11
750.0
 21
884.28633499999955
 31
0.0
  0
LINE
  5
110
  8
SPEC
  6
CONTINUOUS
 62
     7
 10
-725.0
 20
659.28633500000001
 30
0.0
 11
750.0
 21
659.28633500000001
 31
0.0
  0
LINE
  5
111
  8
SPEC
  6
CONTINUOUS
 62
     7
 10
-725.0
 20
696.78633500000001
 30
0.0
 11
750.0
 21
696.78633500000001
 31
0.0
  0
LINE
  5
112
  8
SPEC
  6
CONTINUOUS
 62
     7
 10
433.33274999999958
 20
549.99949999999944
 30
0.0
 11
433.33274999999958
 21
416.66649999999993
 31
0.0
  0
TEXT
  5
113
  8
SPEC
 62
     7
 10
490.81485339756028
 20
525.37716572265606
 30
0.0
 40
16.53285661697387
  1
ハイパス
 41
0.8
 11
490.81485339756028
 21
541.9100223396299
 31
0.0
 73
     3
  0
LINE
  5
114
  8
SPEC
  6
CONTINUOUS
 62
     7
 10
225.0
 20
516.66624999999931
 30
0.0
 11
225.0
 21
583.33274999999935
 31
0.0
  0
LINE
  5
115
  8
SPEC
  6
CONTINUOUS
 62
     7
 10
474.9999999999996
 20
466.66637499999968
 30
0.0
 11
475.0
 21
566.66612500000019
 31
0.0
  0
LINE
  5
116
  8
SPEC
  6
CONTINUOUS
 62
     7
 10
399.99949999999978
 20
516.66624999999931
 30
0.0
 11
399.99949999999978
 21
583.33274999999935
 31
0.0
  0
CIRCLE
  5
117
  8
SPEC
  6
CONTINUOUS
 62
     7
 10
800.0
 20
516.6662499999992
 30
0.0
 40
49.999875000000422
  0
CIRCLE
  5
118
  8
SPEC
  6
CONTINUOUS
 62
     7
 10
800.0
 20
516.6662499999992
 30
0.0
 40
33.333250000000127
  0
CIRCLE
  5
119
  8
SPEC
  6
CONTINUOUS
 62
     7
 10
800.0
 20
516.6662499999992
 30
0.0
 40
29.33326000000033
  0
ARC
  5
11A
  8
SPEC
  6
CONTINUOUS
 62
     7
 10
800.0
 20
516.6662499999992
 30
0.0
 40
83.333124999999967
 50
168.4630409671845
 51
191.53695903281559
  0
LINE
  5
11B
  8
SPEC
  6
CONTINUOUS
 62
     7
 10
599.99899999999968
 20
466.66637499999962
 30
0.0
 11
599.99899999999968
 21
566.66612499999951
 31
0.0
  0
ARC
  5
11C
  8
SPEC
  6
CONTINUOUS
 62
     7
 10
800.0
 20
516.6662499999992
 30
0.0
 40
83.333125000000024
 50
348.46304096718438
 51
11.536959032815391
  0
TEXT
  5
11D
  8
SPEC
 62
     7
 10
899.99974999999995
 20
518.78694904488225
 30
0.0
 40
15.499553078412999
  1
Driver
 41
0.8
 11
899.99974999999995
 21
534.28650212329535
 31
0.0
 73
     3
  0
LINE
  5
11E
  8
SPEC
  6
STYLE_11
 62
     7
 10
474.9999999999996
 20
349.99999999999977
 30
0.0
 11
599.99899999999968
 21
349.99999999999977
 31
0.0
  0
LINE
  5
11F
  8
SPEC
  6
CONTINUOUS
 62
     7
 10
474.9999999999996
 20
333.33337499999988
 30
0.0
 11
599.99899999999968
 21
333.33337499999988
 31
0.0
  0
TEXT
  5
120
  8
SPEC
 62
     7
 10
483.8448708500236
 20
365.67704414062428
 30
0.0
 40
16.53285661697387
  1
フィルター
 41
0.8
 11
483.8448708500236
 21
382.20990075759818
 31
0.0
 73
     3
  0
LINE
  5
121
  8
SPEC
  6
STYLE_11
 62
     7
 10
474.9999999999996
 20
416.66649999999993
 30
0.0
 11
599.99899999999968
 21
416.66649999999993
 31
0.0
  0
LINE
  5
122
  8
SPEC
  6
CONTINUOUS
 62
     7
 10
474.9999999999996
 20
433.3331249999996
 30
0.0
 11
599.99899999999968
 21
433.3331249999996
 31
0.0
  0
LINE
  5
123
  8
SPEC
  6
CONTINUOUS
 62
     7
 10
474.9999999999996
 20
466.66637499999962
 30
0.0
 11
599.99899999999968
 21
466.66637499999962
 31
0.0
  0
LINE
  5
124
  8
SPEC
  6
STYLE_11
 62
     7
 10
474.9999999999996
 20
483.33299999999957
 30
0.0
 11
599.99899999999968
 21
483.33299999999957
 31
0.0
  0
TEXT
  5
125
  8
SPEC
 62
     7
 10
483.8448708500236
 20
499.01004414062493
 30
0.0
 40
16.53285661697387
  1
フィルター
 41
0.8
 11
483.8448708500236
 21
515.54290075759866
 31
0.0
 73
     3
  0
LINE
  5
126
  8
SPEC
  6
CONTINUOUS
 62
     7
 10
225.0
 20
516.66624999999931
 30
0.0
 11
399.99949999999978
 21
516.66624999999931
 31
0.0
  0
LINE
  5
127
  8
SPEC
  6
CONTINUOUS
 62
     7
 10
474.99999999999977
 20
199.99999999999969
 30
0.0
 11
625.0
 21
199.99999999999969
 31
0.0
  0
TEXT
  5
128
  8
SPEC
 62
     7
 10
490.81485339756028
 20
392.04416572265541
 30
0.0
 40
16.53285661697387
  1
ローパス
 41
0.8
 11
490.81485339756028
 21
408.57702233962931
 31
0.0
 73
     3
  0
LINE
  5
129
  8
SPEC
  6
CONTINUOUS
 62
     7
 10
449.99937499999942
 20
349.99999999999977
 30
0.0
 11
449.99937499999942
 21
483.33299999999957
 31
0.0
  0
LINE
  5
12A
  8
SPEC
  6
CONTINUOUS
 62
     7
 10
474.9999999999996
 20
333.33337500000022
 30
0.0
 11
474.9999999999996
 21
433.33312499999988
 31
0.0
  0
CIRCLE
  5
12B
  8
SPEC
  6
CONTINUOUS
 62
     7
 10
449.99937499999942
 20
349.99999999999892
 30
0.0
 40
3.515616210937424
  0
LINE
  5
12C
  8
SPEC
  6
CONTINUOUS
 62
     7
 10
433.33274999999958
 20
416.66649999999993
 30
0.0
 11
474.9999999999996
 21
416.66649999999993
 31
0.0
  0
LINE
  5
12D
  8
SPEC
  6
CONTINUOUS
 62
     7
 10
449.99937499999942
 20
483.33299999999957
 30
0.0
 11
474.9999999999996
 21
483.33299999999957
 31
0.0
  0
TEXT
  5
12E
  8
SPEC
 62
     7
 10
506.61961885880442
 20
214.79748437499981
 30
0.0
 40
23.972702026367191
  1
接続図
 41
0.8
 11
506.61961885880442
 21
238.770186401367
 31
0.0
 73
     3
  0
LINE
  5
12F
  8
SPEC
  6
CONTINUOUS
 62
     7
 10
847.14033422797252
 20
499.99962499999901
 30
0.0
 11
881.64945396862731
 21
499.99962499999901
 31
0.0
  0
ARC
  5
130
  8
SPEC
  6
CONTINUOUS
 62
     7
 10
870.73010523976802
 20
279.2698947602313
 30
0.0
 40
10.66663999999998
 50
273.13639239527521
 51
356.86360760472121
  0
ARC
  5
131
  8
SPEC
  6
CONTINUOUS
 62
     7
 10
870.73010523976802
 20
420.73010523976791
 30
0.0
 40
10.666639999999999
 50
3.1363923952777131
 51
86.86360760472229
  0
CIRCLE
  5
132
  8
SPEC
  6
CONTINUOUS
 62
     7
 10
800.0
 20
349.99999999999977
 30
0.0
 40
77.333140000000185
  0
ARC
  5
133
  8
SPEC
  6
CONTINUOUS
 62
     7
 10
799.99999999999955
 20
1570.080283124995
 30
0.0
 40
1303.4134081249949
 50
266.86360760472212
 51
273.13639239527782
  0
LINE
  5
134
  8
SPEC
  6
CONTINUOUS
 62
     7
 10
845.11833355699309
 20
328.45183355699311
 30
0.0
 11
856.44511788558384
 21
317.12504922840247
 31
0.0
  0
LINE
  5
135
  8
SPEC
  6
CONTINUOUS
 62
     7
 10
845.11833355699309
 20
371.54816644300649
 30
0.0
 11
856.44511788558236
 21
382.87495077159588
 31
0.0
  0
ARC
  5
136
  8
SPEC
  6
CONTINUOUS
 62
     7
 10
799.99999999999955
 20
-870.08028312499482
 30
0.0
 40
1303.4134081249949
 50
86.863607604722105
 51
93.136392395277795
  0
TEXT
  5
137
  8
SPEC
 62
     7
 10
823.33327500000019
 20
207.04375322265599
 30
0.0
 40
16.53285661697387
  1
RED
 41
0.8
 11
823.33327500000019
 21
223.5766098396299
 31
0.0
 73
     3
  0
ARC
  5
138
  8
SPEC
  6
CONTINUOUS
 62
     7
 10
2020.080283124995
 20
349.99999999999977
 30
0.0
 40
1303.4134081249949
 50
176.86360760472209
 51
183.1363923952778
  0
ARC
  5
139
  8
SPEC
  6
CONTINUOUS
 62
     7
 10
800.0
 20
349.99999999999977
 30
0.0
 40
68.718255297560034
 50
62.019655054720488
 51
117.9803449452782
  0
LINE
  5
13A
  8
SPEC
  6
CONTINUOUS
 62
     7
 10
599.99899999999968
 20
333.33337499999988
 30
0.0
 11
599.99899999999968
 21
433.3331249999996
 31
0.0
  0
CIRCLE
  5
13B
  8
SPEC
  6
CONTINUOUS
 62
     7
 10
800.0
 20
349.99999999999977
 30
0.0
 40
49.999874999999982
  0
LINE
  5
13C
  8
SPEC
  6
CONTINUOUS
 62
     7
 10
778.45183355699282
 20
395.11833355699292
 30
0.0
 11
767.1250492284006
 21
406.44511788558577
 31
0.0
  0
LINE
  5
13D
  8
SPEC
  6
CONTINUOUS
 62
     7
 10
821.54816644300661
 20
395.11833355699292
 30
0.0
 11
832.87495077160236
 21
406.44511788558879
 31
0.0
  0
ARC
  5
13E
  8
SPEC
  6
CONTINUOUS
 62
     7
 10
729.26989476023164
 20
279.2698947602313
 30
0.0
 40
10.66663999999999
 50
183.1363923952764
 51
266.86360760471979
  0
CIRCLE
  5
13F
  8
SPEC
  6
CONTINUOUS
 62
     7
 10
800.0
 20
349.99999999999977
 30
0.0
 40
41.384990297559852
  0
LINE
  5
140
  8
SPEC
  6
CONTINUOUS
 62
     7
 10
754.88166644300645
 20
371.54816644300649
 30
0.0
 11
743.55488211441832
 21
382.8749507715948
 31
0.0
  0
ARC
  5
141
  8
SPEC
  6
CONTINUOUS
 62
     7
 10
741.66926874529952
 20
380.98933740247571
 30
0.0
 40
2.6666600000003151
 50
44.99999999999654
 51
152.01965505472089
  0
LINE
  5
142
  8
SPEC
  6
CONTINUOUS
 62
     7
 10
754.88166644300645
 20
328.45183355699282
 30
0.0
 11
743.5548821144115
 21
317.12504922839707
 31
0.0
  0
ARC
  5
143
  8
SPEC
  6
CONTINUOUS
 62
     7
 10
741.66926874529236
 20
319.01066259751622
 30
0.0
 40
2.6666600000000158
 50
207.98034494527869
 51
314.99999999999608
  0
LINE
  5
144
  8
SPEC
  6
CONTINUOUS
 62
     7
 10
778.45183355699282
 20
304.88166644300651
 30
0.0
 11
767.12504922840378
 21
293.55488211441718
 31
0.0
  0
ARC
  5
145
  8
SPEC
  6
CONTINUOUS
 62
     7
 10
769.0106625975227
 20
291.66926874529821
 30
0.0
 40
2.6666600000003151
 50
135.0000000000035
 51
242.01965505472501
  0
LINE
  5
146
  8
SPEC
  6
CONTINUOUS
 62
     7
 10
821.54816644300661
 20
304.88166644300691
 30
0.0
 11
832.87495077159952
 21
293.55488211441377
 31
0.0
  0
ARC
  5
147
  8
SPEC
  6
CONTINUOUS
 62
     7
 10
830.98933740248037
 20
291.66926874529508
 30
0.0
 40
2.6666600000001242
 50
297.98034494528292
 51
44.999999999996149
  0
ARC
  5
148
  8
SPEC
  6
CONTINUOUS
 62
     7
 10
800.0
 20
349.99999999999977
 30
0.0
 40
68.718255297559935
 50
152.01965505472339
 51
207.9803449452794
  0
ARC
  5
149
  8
SPEC
  6
CONTINUOUS
 62
     7
 10
800.0
 20
349.99999999999977
 30
0.0
 40
68.718255297560006
 50
242.0196550547231
 51
297.9803449452782
  0
LINE
  5
14A
  8
SPEC
  6
CONTINUOUS
 62
     7
 10
790.00002499999982
 20
296.6667999999994
 30
0.0
 11
790.00002499999982
 21
301.01032761882323
 31
0.0
  0
LINE
  5
14B
  8
SPEC
  6
CONTINUOUS
 62
     7
 10
780.0000500000001
 20
296.66679999999991
 30
0.0
 11
780.0000500000001
 21
304.17435761483398
 31
0.0
  0
LINE
  5
14C
  8
SPEC
  6
CONTINUOUS
 62
     7
 10
819.99994999999944
 20
296.66679999999968
 30
0.0
 11
809.99997499999961
 21
296.6667999999994
 31
0.0
  0
LINE
  5
14D
  8
SPEC
  6
CONTINUOUS
 62
     7
 10
809.99997499999961
 20
296.6667999999994
 30
0.0
 11
809.99997499999961
 21
301.01032761882323
 31
0.0
  0
LINE
  5
14E
  8
SPEC
  6
CONTINUOUS
 62
     7
 10
819.99994999999944
 20
296.66679999999991
 30
0.0
 11
819.99994999999944
 21
304.17435761483398
 31
0.0
  0
LINE
  5
14F
  8
SPEC
  6
CONTINUOUS
 62
     7
 10
780.0000500000001
 20
296.66679999999968
 30
0.0
 11
790.00002499999982
 21
296.6667999999994
 31
0.0
  0
TEXT
  5
150
  8
SPEC
 62
     7
 10
778.82839028007083
 20
315.11987886718703
 30
0.0
 40
19.839427940368651
  1
-
 41
0.8
 11
778.82839028007083
 21
334.95930680755561
 31
0.0
 73
     3
  0
TEXT
  5
151
  8
SPEC
 62
     7
 10
808.82831528007046
 20
315.11987886718703
 30
0.0
 40
19.839427940368651
  1
+
 41
0.8
 11
808.82831528007046
 21
334.95930680755561
 31
0.0
 73
     3
  0
LINE
  5
152
  8
SPEC
  6
CONTINUOUS
 62
     7
 10
785.00003749999985
 20
216.6669999999998
 30
0.0
 11
785.00003749999985
 21
296.6667999999994
 31
0.0
  0
TEXT
  5
153
  8
SPEC
 62
     7
 10
741.29218266434191
 20
223.71125322265601
 30
0.0
 40
16.53285661697387
  1
BLK
 41
0.8
 11
741.29218266434191
 21
240.24410983962991
 31
0.0
 73
     3
  0
ARC
  5
154
  8
SPEC
  6
CONTINUOUS
 62
     7
 10
769.01066259751951
 20
408.33073125470492
 30
0.0
 40
2.6666599999999101
 50
117.9803449452743
 51
225.00000000000429
  0
ARC
  5
155
  8
SPEC
  6
CONTINUOUS
 62
     7
 10
830.98933740248344
 20
408.33073125470793
 30
0.0
 40
2.6666600000003151
 50
315.00000000000352
 51
62.01965505471658
  0
LINE
  5
156
  8
SPEC
  6
CONTINUOUS
 62
     7
 10
700.0014999999994
 20
216.6669999999996
 30
0.0
 11
700.0014999999994
 21
349.99999999999977
 31
0.0
  0
LINE
  5
157
  8
SPEC
  6
CONTINUOUS
 62
     7
 10
700.0014999999994
 20
216.6669999999998
 30
0.0
 11
785.00003749999985
 21
216.6669999999998
 31
0.0
  0
TEXT
  5
158
  8
SPEC
 62
     7
 10
625.00049999999908
 20
357.0442532226557
 30
0.0
 40
16.53285661697387
  1
L.F.-
 41
0.8
 11
625.00049999999908
 21
373.5771098396296
 31
0.0
 73
     3
  0
LINE
  5
159
  8
SPEC
  6
CONTINUOUS
 62
     7
 10
599.99899999999968
 20
349.99999999999932
 30
0.0
 11
700.00149999999894
 21
349.99999999999932
 31
0.0
  0
ARC
  5
15A
  8
SPEC
  6
CONTINUOUS
 62
     7
 10
729.26989476023164
 20
420.73010523976791
 30
0.0
 40
10.666639999999999
 50
93.136392395277724
 51
176.8636076047211
  0
TEXT
  5
15B
  8
SPEC
 62
     7
 10
625.00049999999908
 20
423.71075322265591
 30
0.0
 40
16.53285661697387
  1
L.F.+
 41
0.8
 11
625.00049999999908
 21
440.24360983962981
 31
0.0
 73
     3
  0
LINE
  5
15C
  8
SPEC
  6
CONTINUOUS
 62
     7
 10
599.99899999999968
 20
416.66649999999959
 30
0.0
 11
683.33487499999967
 21
416.66649999999959
 31
0.0
  0
LINE
  5
15D
  8
SPEC
  6
CONTINUOUS
 62
     7
 10
718.35054603137257
 20
499.99962499999901
 30
0.0
 11
752.85966577202669
 21
499.99962499999901
 31
0.0
  0
CIRCLE
  5
15E
  8
SPEC
  6
CONTINUOUS
 62
     7
 10
725.0001874999997
 20
516.6662499999992
 30
0.0
 40
2.6666599999998639
  0
LINE
  5
15F
  8
SPEC
  6
CONTINUOUS
 62
     7
 10
790.00002500000028
 20
479.33300999999938
 30
0.0
 11
809.99997499999961
 21
479.33300999999938
 31
0.0
  0
LINE
  5
160
  8
SPEC
  6
CONTINUOUS
 62
     7
 10
790.00002500000028
 20
484.86835611436771
 30
0.0
 11
790.00002500000028
 21
479.33300999999938
 31
0.0
  0
LINE
  5
161
  8
SPEC
  6
CONTINUOUS
 62
     7
 10
809.99997499999961
 20
484.86835611436771
 30
0.0
 11
809.99997499999961
 21
479.33300999999938
 31
0.0
  0
TEXT
  5
162
  8
SPEC
 62
     7
 10
625.00049999999965
 20
490.37725322265572
 30
0.0
 40
16.53285661697387
  1
H.F.-
 41
0.8
 11
625.00049999999965
 21
506.91010983962951
 31
0.0
 73
     3
  0
LINE
  5
163
  8
SPEC
  6
CONTINUOUS
 62
     7
 10
599.99899999999968
 20
483.33299999999889
 30
0.0
 11
800.0
 21
483.33299999999889
 31
0.0
  0
TEXT
  5
164
  8
SPEC
 62
     7
 10
691.66700000000014
 20
457.04400322265508
 30
0.0
 40
16.53285661697387
  1
BLK
 41
0.8
 11
691.66700000000014
 21
473.57685983962898
 31
0.0
 73
     3
  0
TEXT
  5
165
  8
SPEC
 62
     7
 10
747.91681250000045
 20
456.78619136718618
 30
0.0
 40
19.839427940368651
  1
-
 41
0.8
 11
747.91681250000045
 21
476.62561930755481
 31
0.0
 73
     3
  0
LINE
  5
166
  8
SPEC
  6
CONTINUOUS
 62
     7
 10
683.33487499999967
 20
199.99949999999939
 30
0.0
 11
814.99996250000038
 21
199.99949999999939
 31
0.0
  0
LINE
  5
167
  8
SPEC
  6
CONTINUOUS
 62
     7
 10
683.3348749999991
 20
199.99949999999961
 30
0.0
 11
683.33487499999967
 21
416.66649999999959
 31
0.0
  0
LINE
  5
168
  8
SPEC
  6
CONTINUOUS
 62
     7
 10
814.99996249999879
 20
199.99949999999939
 30
0.0
 11
814.9999624999997
 21
296.6667999999994
 31
0.0
  0
ARC
  5
169
  8
SPEC
  6
CONTINUOUS
 62
     7
 10
858.33073125470241
 20
319.01066259752128
 30
0.0
 40
2.6666599999999931
 50
225.0000000000035
 51
332.01965505472128
  0
ARC
  5
16A
  8
SPEC
  6
CONTINUOUS
 62
     7
 10
858.33073125470105
 20
380.98933740247691
 30
0.0
 40
2.6666599999999101
 50
27.98034494527435
 51
134.99999999999571
  0
ARC
  5
16B
  8
SPEC
  6
CONTINUOUS
 62
     7
 10
800.0
 20
349.99999999999977
 30
0.0
 40
68.718255297559963
 50
332.01965505472248
 51
27.98034494527689
  0
CIRCLE
  5
16C
  8
SPEC
  6
CONTINUOUS
 62
     7
 10
874.99981250000064
 20
516.6662499999992
 30
0.0
 40
2.6666599999998639
  0
ARC
  5
16D
  8
SPEC
  6
CONTINUOUS
 62
     7
 10
-420.08028312499482
 20
350.00000000000023
 30
0.0
 40
1303.4134081249949
 50
356.86360760472218
 51
3.1363923952778232
  0
TEXT
  5
16E
  8
SPEC
 62
     7
 10
899.99974999999995
 20
385.45394904488239
 30
0.0
 40
15.499553078412999
  1
Driver
 41
0.8
 11
899.99974999999995
 21
400.95350212329532
 31
0.0
 73
     3
  0
TEXT
  5
16F
  8
SPEC
 62
     7
 10
899.99974999999995
 20
365.45813192749011
 30
0.0
 40
15.499553078412999
  1
Low Freq
 41
0.8
 11
899.99974999999995
 21
380.9576850059031
 31
0.0
 73
     3
  0
TEXT
  5
170
  8
SPEC
 62
     7
 10
899.99974999999995
 20
345.46231481009818
 30
0.0
 40
15.499553078412999
  1
135mm
 41
0.8
 11
899.99974999999995
 21
360.96186788851122
 31
0.0
 73
     3
  0
TEXT
  5
171
  8
SPEC
 62
     7
 10
899.99974999999995
 20
478.79531481009741
 30
0.0
 40
15.499553078412999
  1
19mm
 41
0.8
 11
899.99974999999995
 21
494.29486788851028
 31
0.0
 73
     3
  0
TEXT
  5
172
  8
SPEC
 62
     7
 10
899.99974999999995
 20
498.79113192748929
 30
0.0
 40
15.499553078412999
  1
High Freq
 41
0.8
 11
899.99974999999995
 21
514.29068500590233
 31
0.0
 73
     3
  0
LINE
  5
173
  8
SPEC
  6
STYLE_11
 62
     7
 10
474.9999999999996
 20
549.9994999999999
 30
0.0
 11
599.99899999999968
 21
549.99949999999944
 31
0.0
  0
LINE
  5
174
  8
SPEC
  6
CONTINUOUS
 62
     7
 10
474.9999999999996
 20
566.66612499999985
 30
0.0
 11
599.99899999999968
 21
566.66612499999951
 31
0.0
  0
LINE
  5
175
  8
SPEC
  6
CONTINUOUS
 62
     7
 10
225.0
 20
583.33274999999935
 30
0.0
 11
399.99949999999978
 21
583.33274999999935
 31
0.0
  0
TEXT
  5
176
  8
SPEC
 62
     7
 10
237.3046254882812
 20
551.83543291015565
 30
0.0
 40
16.53285661697387
  1
ソニックガード
 41
0.8
 11
237.3046254882812
 21
568.36828952712949
 31
0.0
 73
     3
  0
CIRCLE
  5
177
  8
SPEC
  6
CONTINUOUS
 62
     7
 10
433.33274999999958
 20
549.99949999999865
 30
0.0
 40
3.515616210937424
  0
LINE
  5
178
  8
SPEC
  6
CONTINUOUS
 62
     7
 10
399.99949999999978
 20
549.99949999999944
 30
0.0
 11
474.9999999999996
 21
549.99949999999944
 31
0.0
  0
TEXT
  5
179
  8
SPEC
 62
     7
 10
291.01542871093739
 20
528.71049072265509
 30
0.0
 40
16.53285661697387
  1
回路
 41
0.8
 11
291.01542871093739
 21
545.24334733962905
 31
0.0
 73
     3
  0
LINE
  5
17A
  8
SPEC
  6
CONTINUOUS
 62
     7
 10
847.1403342279732
 20
533.33287499999915
 30
0.0
 11
881.64945396862731
 21
533.33287499999915
 31
0.0
  0
TEXT
  5
17B
  8
SPEC
 62
     7
 10
747.91681250000011
 20
556.78594136718652
 30
0.0
 40
19.839427940368651
  1
+
 41
0.8
 11
747.91681250000011
 21
576.62536930755505
 31
0.0
 73
     3
  0
TEXT
  5
17C
  8
SPEC
 62
     7
 10
691.6669999999998
 20
557.04375322265525
 30
0.0
 40
16.53285661697387
  1
BLUE
 41
0.8
 11
691.6669999999998
 21
573.5766098396291
 31
0.0
 73
     3
  0
LINE
  5
17D
  8
SPEC
  6
CONTINUOUS
 62
     7
 10
718.35054603137257
 20
533.33287499999915
 30
0.0
 11
752.85966577202669
 21
533.33287499999915
 31
0.0
  0
LINE
  5
17E
  8
SPEC
  6
CONTINUOUS
 62
     7
 10
790.00002500000028
 20
553.99948999999913
 30
0.0
 11
809.99997499999961
 21
553.99948999999913
 31
0.0
  0
LINE
  5
17F
  8
SPEC
  6
CONTINUOUS
 62
     7
 10
790.00002500000028
 20
548.46414388563062
 30
0.0
 11
790.00002500000028
 21
553.99948999999913
 31
0.0
  0
LINE
  5
180
  8
SPEC
  6
CONTINUOUS
 62
     7
 10
809.99997499999961
 20
548.46414388563062
 30
0.0
 11
809.99997499999961
 21
553.99948999999913
 31
0.0
  0
TEXT
  5
181
  8
SPEC
 62
     7
 10
625.00049999999965
 20
557.04375322265571
 30
0.0
 40
16.53285661697387
  1
H.F.+
 41
0.8
 11
625.00049999999965
 21
573.57660983962955
 31
0.0
 73
     3
  0
LINE
  5
182
  8
SPEC
  6
CONTINUOUS
 62
     7
 10
599.99899999999968
 20
549.99949999999944
 30
0.0
 11
800.0
 21
549.99949999999944
 31
0.0
  0
TEXT
  5
183
  8
SPEC
 62
     7
 10
-391.0
 20
1047.6655572222221
 30
0.0
 40
19.003146701388879
  1
100V INPUT --- Tap1 : 7.5W , Tap2 : 15W , Tap3 : 30W , Tap4 is not used
 41
0.8
 11
-391.0
 21
1066.6687039236101
 31
0.0
 73
     3
  0
TEXT
  5
184
  8
SPEC
 62
     7
 10
-391.0
 20
1342.1655572222221
 30
0.0
 40
19.003146701388879
  1
2Wayハイインピーダンス　スピーカ (Compact Indoor/Outdoor Background/Foreground Speaker)
 41
0.8
 11
-391.0
 21
1361.168703923611
 31
0.0
 73
     3
  0
TEXT
  5
185
  8
SPEC
 62
     7
 10
-391.0
 20
1122.6655572222221
 30
0.0
 40
19.003146701388879
  1
100V INPUT --- Tap1 : 97dB SPL , Tap2 : 100dB SPL , Tap3 : 102dB SPL , Tap4 do not use
 41
0.8
 11
-391.0
 21
1141.668703923611
 31
0.0
 73
     3
  0
TEXT
  5
186
  8
SPEC
 62
     7
 10
-391.0
 20
1154.6655572222221
 30
0.0
 40
19.003146701388879
  1
70.7V INPUT --- Tap1 : 94dB SPL , Tap2 : 97dB SPL , Tap3 : 100dB SPL , Tap4 : 102dB SPL
 41
0.8
 11
-391.0
 21
1173.668703923611
 31
0.0
 73
     3
  0
TEXT
  5
187
  8
SPEC
 62
     7
 10
-391.0
 20
1079.6655572222221
 30
0.0
 40
19.003146701388879
  1
70.7V INPUT --- Tap1 : 3.7W , Tap2 : 7.5W , Tap3 : 15W , Tap4 : 30W
 41
0.8
 11
-391.0
 21
1098.6687039236101
 31
0.0
 73
     3
  0
TEXT
  5
188
  8
SPEC
 62
     7
 10
-716.0
 20
742.16555722222188
 30
0.0
 40
19.003146701388879
  1
可変振り角度（スピーカ）
 41
0.8
 11
-716.0
 21
761.16870392361079
 31
0.0
 73
     3
  0
TEXT
  5
189
  8
SPEC
 62
     7
 10
-716.0
 20
854.66555722222188
 30
0.0
 40
19.003146701388879
  1
極性
 41
0.8
 11
-716.0
 21
873.66870392361068
 31
0.0
 73
     3
  0
TEXT
  5
18A
  8
SPEC
 62
     7
 10
-716.0
 20
817.16555722222188
 30
0.0
 40
19.003146701388879
  1
メンテナンス
 41
0.8
 11
-716.0
 21
836.16870392361068
 31
0.0
 73
     3
  0
TEXT
  5
18B
  8
SPEC
 62
     7
 10
-716.0
 20
629.66555722222188
 30
0.0
 40
19.003146701388879
  1
付属品
 41
0.8
 11
-716.0
 21
648.66870392361079
 31
0.0
 73
     3
  0
TEXT
  5
18C
  8
SPEC
 62
     7
 10
-716.0
 20
667.16555722222188
 30
0.0
 40
19.003146701388879
  1
重量
 41
0.8
 11
-716.0
 21
686.16870392361079
 31
0.0
 73
     3
  0
TEXT
  5
18D
  8
SPEC
 62
     7
 10
-716.0
 20
704.66555722222188
 30
0.0
 40
19.003146701388879
  1
寸法
 41
0.8
 11
-716.0
 21
723.66870392361079
 31
0.0
 73
     3
  0
TEXT
  5
18E
  8
SPEC
 62
     7
 10
-716.0
 20
779.66555722222188
 30
0.0
 40
19.003146701388879
  1
コネクター
 41
0.8
 11
-716.0
 21
798.66870392361079
 31
0.0
 73
     3
  0
TEXT
  5
18F
  8
SPEC
 62
     7
 10
-716.0
 20
1004.665557222222
 30
0.0
 40
19.003146701388879
  1
クロスオーバー
 41
0.8
 11
-716.0
 21
1023.66870392361
 31
0.0
 73
     3
  0
TEXT
  5
190
  8
SPEC
 62
     7
 10
-716.0
 20
967.16555722222211
 30
0.0
 40
19.003146701388879
  1
耐候性規格
 41
0.8
 11
-716.0
 21
986.16870392361113
 31
0.0
 73
     3
  0
TEXT
  5
191
  8
SPEC
 62
     7
 10
-716.0
 20
929.66555722222211
 30
0.0
 40
19.003146701388879
  1
外装色
 41
0.8
 11
-716.0
 21
948.66870392361113
 31
0.0
 73
     3
  0
TEXT
  5
192
  8
SPEC
 62
     7
 10
-716.0
 20
1079.6655572222221
 30
0.0
 40
19.003146701388879
  1
入力切替
 41
0.8
 11
-716.0
 21
1098.6687039236101
 31
0.0
 73
     3
  0
TEXT
  5
193
  8
SPEC
 62
     7
 10
-716.0
 20
1154.6655572222221
 30
0.0
 40
19.003146701388879
  1
音圧レベル (1W/1m)
 41
0.8
 11
-716.0
 21
1173.668703923611
 31
0.0
 73
     3
  0
TEXT
  5
194
  8
SPEC
 62
     7
 10
-716.0
 20
1192.1655572222221
 30
0.0
 40
19.003146701388879
  1
高域ユニット
 41
0.8
 11
-716.0
 21
1211.1687039236101
 31
0.0
 73
     3
  0
TEXT
  5
195
  8
SPEC
 62
     7
 10
-716.0
 20
1229.6655572222221
 30
0.0
 40
19.003146701388879
  1
低域ユニット
 41
0.8
 11
-716.0
 21
1248.668703923611
 31
0.0
 73
     3
  0
TEXT
  5
196
  8
SPEC
 62
     7
 10
-716.0
 20
1267.1655572222221
 30
0.0
 40
19.003146701388879
  1
公称カバレージ
 41
0.8
 11
-716.0
 21
1286.168703923611
 31
0.0
 73
     3
  0
TEXT
  5
197
  8
SPEC
 62
     7
 10
-716.0
 20
1342.1655572222221
 30
0.0
 40
19.003146701388879
  1
形式
 41
0.8
 11
-716.0
 21
1361.168703923611
 31
0.0
 73
     3
  0
TEXT
  5
198
  8
SPEC
 62
     7
 10
-716.0
 20
1304.6655572222221
 30
0.0
 40
19.003146701388879
  1
周波数レンジ (-10dB)
 41
0.8
 11
-716.0
 21
1323.668703923611
 31
0.0
 73
     3
  0
TEXT
  5
199
  8
SPEC
 62
     7
 10
-391.0
 20
779.66555722222188
 30
0.0
 40
19.003146701388879
  1
プッシュ式ターミナル
 41
0.8
 11
-391.0
 21
798.66870392361079
 31
0.0
 73
     3
  0
TEXT
  5
19A
  8
SPEC
 62
     7
 10
-391.0
 20
854.66555722222188
 30
0.0
 40
19.003146701388879
  1
正相 (低域) , 正相 (高域)
 41
0.8
 11
-391.0
 21
873.66870392361068
 31
0.0
 73
     3
  0
TEXT
  5
19B
  8
SPEC
 62
     7
 10
-391.0
 20
704.66555722222188
 30
0.0
 40
19.003146701388879
  1
185(W)×235(H)×145(D)mm
 41
0.8
 11
-391.0
 21
723.66870392361079
 31
0.0
 73
     3
  0
TEXT
  5
19C
  8
SPEC
 62
     7
 10
-391.0
 20
742.16555722222188
 30
0.0
 40
19.003146701388879
  1
横方向 : 44゜ , 縦方向 : 37゜
 41
0.8
 11
-391.0
 21
761.16870392361079
 31
0.0
 73
     3
  0
TEXT
  5
19D
  8
SPEC
 62
     7
 10
-391.0
 20
817.16555722222188
 30
0.0
 40
19.003146701388879
  1
SPユニットは前面側で交換
 41
0.8
 11
-391.0
 21
836.16870392361068
 31
0.0
 73
     3
  0
TEXT
  5
19E
  8
SPEC
 62
     7
 10
-391.0
 20
667.16555722222188
 30
0.0
 40
19.003146701388879
  1
約3.6kg
 41
0.8
 11
-391.0
 21
686.16870392361079
 31
0.0
 73
     3
  0
TEXT
  5
19F
  8
SPEC
 62
     7
 10
-391.0
 20
967.16555722222211
 30
0.0
 40
19.003146701388879
  1
Mil-Std 810 , IPX4 Per IEC 529 (全天候型)
 41
0.8
 11
-391.0
 21
986.16870392361113
 31
0.0
 73
     3
  0
TEXT
  5
1A0
  8
SPEC
 62
     7
 10
-391.0
 20
1229.6655572222221
 30
0.0
 40
19.003146701388879
  1
135mm (口径 : 5.25インチ)
 41
0.8
 11
-391.0
 21
1248.668703923611
 31
0.0
 73
     3
  0
TEXT
  5
1A1
  8
SPEC
 62
     7
 10
-391.0
 20
1192.1655572222221
 30
0.0
 40
19.003146701388879
  1
19mm (ダイアフラム径 : 0.75インチ)
 41
0.8
 11
-391.0
 21
1211.1687039236101
 31
0.0
 73
     3
  0
TEXT
  5
1A2
  8
SPEC
 62
     7
 10
-391.0
 20
897.66555722222199
 30
0.0
 40
19.003146701388879
  1
CONTROL 25T-WH: 白
 41
0.8
 11
-391.0
 21
916.66870392361102
 31
0.0
 73
     3
  0
TEXT
  5
1A3
  8
SPEC
 62
     7
 10
-391.0
 20
1004.665557222222
 30
0.0
 40
19.003146701388879
  1
3.0kHz
 41
0.8
 11
-391.0
 21
1023.66870392361
 31
0.0
 73
     3
  0
TEXT
  5
1A4
  8
SPEC
 62
     7
 10
-391.0
 20
929.66555722222211
 30
0.0
 40
19.003146701388879
  1
CONTROL 25T: 黒
 41
0.8
 11
-391.0
 21
948.66870392361113
 31
0.0
 73
     3
  0
TEXT
  5
1A5
  8
SPEC
 62
     7
 10
-391.0
 20
1304.6655572222221
 30
0.0
 40
19.003146701388879
  1
80Hz～15kHz
 41
0.8
 11
-391.0
 21
1323.668703923611
 31
0.0
 73
     3
  0
TEXT
  5
1A6
  8
SPEC
 62
     7
 10
-391.0
 20
1267.1655572222221
 30
0.0
 40
19.003146701388879
  1
90゜×90゜
 41
0.8
 11
-391.0
 21
1286.168703923611
 31
0.0
 73
     3
  0
LINE
  5
1A7
  8
SPEC
  6
CONTINUOUS
 62
     7
 10
-725.0
 20
959.28633499999955
 30
0.0
 11
750.0
 21
959.28633499999955
 31
0.0
  0
LINE
  5
1A8
  8
SPEC
  6
CONTINUOUS
 62
     7
 10
-725.0
 20
621.78633500000001
 30
0.0
 11
750.0
 21
621.78633500000001
 31
0.0
  0
LINE
  5
1A9
  8
SPEC
  6
CONTINUOUS
 62
     7
 10
-79.428108611692565
 20
499.99949999999978
 30
0.0
 11
49.999999999999538
 21
499.99949999999961
 31
0.0
  0
LINE
  5
1AA
  8
SPEC
  6
CONTINUOUS
 62
     7
 10
-79.428108611692565
 20
424.99949999999978
 30
0.0
 11
50.0
 21
424.99950000000013
 31
0.0
  0
LINE
  5
1AB
  8
SPEC
  6
CONTINUOUS
 62
     7
 10
-200.00003571418389
 20
349.99998214290889
 30
0.0
 11
50.0
 21
349.99962500000009
 31
0.0
  0
TEXT
  5
1AC
  8
SPEC
 62
     7
 10
-56.249999999999559
 20
429.96044072265607
 30
0.0
 40
16.53285661697387
  1
ORANGE
 41
0.8
 11
-56.249999999999559
 21
446.49329733962992
 31
0.0
 73
     3
  0
TEXT
  5
1AD
  8
SPEC
 62
     7
 10
-56.249999999999559
 20
454.96044072265607
 30
0.0
 40
16.53285661697387
  1
VIOLET
 41
0.8
 11
-56.249999999999559
 21
471.49329733962992
 31
0.0
 73
     3
  0
TEXT
  5
1AE
  8
SPEC
 62
     7
 10
-56.249999999999559
 20
479.9604407226559
 30
0.0
 40
16.53285661697387
  1
BLUE
 41
0.8
 11
-56.249999999999559
 21
496.49329733962969
 31
0.0
 73
     3
  0
TEXT
  5
1AF
  8
SPEC
 62
     7
 10
-56.249999999999559
 20
504.96044072265619
 30
0.0
 40
16.53285661697387
  1
WHITE
 41
0.8
 11
-56.249999999999559
 21
521.49329733962998
 31
0.0
 73
     3
  0
LINE
  5
1B0
  8
SPEC
  6
CONTINUOUS
 62
     7
 10
-64.087708172407034
 20
474.99949999999978
 30
0.0
 11
49.999999999999538
 21
474.99949999999927
 31
0.0
  0
LINE
  5
1B1
  8
SPEC
  6
CONTINUOUS
 62
     7
 10
-64.087708172407034
 20
449.99949999999978
 30
0.0
 11
49.999999999999538
 21
449.99950000000013
 31
0.0
  0
TEXT
  5
1B2
  8
SPEC
 62
     7
 10
-176.95296386718701
 20
531.52348369140634
 30
0.0
 40
16.53285661697387
  1
切替スイッチ
 41
0.8
 11
-176.95296386718701
 21
548.05634030838007
 31
0.0
 73
     3
  0
CIRCLE
  5
1B3
  8
SPEC
  6
CONTINUOUS
 62
     7
 10
-112.4999999999995
 20
462.49949999999961
 30
0.0
 40
49.999999999999538
  0
LINE
  5
1B4
  8
SPEC
  6
CONTINUOUS
 62
     7
 10
-218.75
 20
471.87450000000013
 30
0.0
 11
-200.0000000000004
 21
462.49949999999978
 31
0.0
  0
LINE
  5
1B5
  8
SPEC
  6
CONTINUOUS
 62
     7
 10
-249.99987499999969
 20
454.16618749999969
 30
0.0
 11
-249.99987499999969
 21
470.83281250000022
 31
0.0
  0
LINE
  5
1B6
  8
SPEC
  6
CONTINUOUS
 62
     7
 10
-258.33318749999989
 20
462.49949999999978
 30
0.0
 11
-241.6665624999996
 21
462.49949999999978
 31
0.0
  0
LINE
  5
1B7
  8
SPEC
  6
CONTINUOUS
 62
     7
 10
-218.75
 20
359.37500000000142
 30
0.0
 11
-200.0000000000004
 21
350.00000000000119
 31
0.0
  0
LINE
  5
1B8
  8
SPEC
  6
CONTINUOUS
 62
     7
 10
-218.75
 20
340.62500000000119
 30
0.0
 11
-200.0000000000004
 21
350.00000000000119
 31
0.0
  0
LINE
  5
1B9
  8
SPEC
  6
CONTINUOUS
 62
     7
 10
-258.33318749999989
 20
350.00000000000119
 30
0.0
 11
-241.6665624999996
 21
350.00000000000119
 31
0.0
  0
TEXT
  5
1BA
  8
SPEC
 62
     7
 10
-233.33324999999971
 20
398.45287886718728
 30
0.0
 40
19.839427940368651
  1
INPUT
 41
0.8
 11
-233.33324999999971
 21
418.29230680755592
 31
0.0
 73
     3
  0
LINE
  5
1BB
  8
SPEC
  6
CONTINUOUS
 62
     7
 10
-218.75
 20
453.12449999999978
 30
0.0
 11
-200.0000000000004
 21
462.49949999999978
 31
0.0
  0
LINE
  5
1BC
  8
SPEC
  6
CONTINUOUS
 62
     7
 10
-200.0
 20
462.49949999999961
 30
0.0
 11
-162.4999999999996
 21
462.49949999999961
 31
0.0
  0
LINE
  5
1BD
  8
SPEC
  6
CONTINUOUS
 62
     7
 10
149.99999999999909
 20
587.49949999999956
 30
0.0
 11
149.99999999999909
 21
337.49949999999973
 31
0.0
  0
LINE
  5
1BE
  8
SPEC
  6
CONTINUOUS
 62
     7
 10
49.999999999999538
 20
587.49949999999956
 30
0.0
 11
50.0
 21
337.49949999999973
 31
0.0
  0
LINE
  5
1BF
  8
SPEC
  6
CONTINUOUS
 62
     7
 10
150.0
 20
349.99949999999973
 30
0.0
 11
474.9999999999996
 21
349.99949999999973
 31
0.0
  0
TEXT
  5
1C0
  8
SPEC
 62
     7
 10
156.25
 20
354.96044072265607
 30
0.0
 40
16.53285661697387
  1
1 GRN
 41
0.8
 11
156.25
 21
371.49329733962998
 31
0.0
 73
     3
  0
TEXT
  5
1C1
  8
SPEC
 62
     7
 10
56.250000000000462
 20
442.46044072265641
 30
0.0
 40
16.53285661697387
  1
5
 41
0.8
 11
56.250000000000462
 21
458.9932973396302
 31
0.0
 73
     3
  0
TEXT
  5
1C2
  8
SPEC
 62
     7
 10
56.250000000000462
 20
367.46044072265568
 30
0.0
 40
16.53285661697387
  1
Used
 41
0.8
 11
56.250000000000462
 21
383.99329733962958
 31
0.0
 73
     3
  0
TEXT
  5
1C3
  8
SPEC
 62
     7
 10
56.250000000000462
 20
392.46044072265568
 30
0.0
 40
16.53285661697387
  1
Not
 41
0.8
 11
56.250000000000462
 21
408.99329733962958
 31
0.0
 73
     3
  0
TEXT
  5
1C4
  8
SPEC
 62
     7
 10
56.250000000000462
 20
417.46044072265579
 30
0.0
 40
16.53285661697387
  1
6
 41
0.8
 11
56.250000000000462
 21
433.99329733962969
 31
0.0
 73
     3
  0
TEXT
  5
1C5
  8
SPEC
 62
     7
 10
56.250000000000462
 20
467.46044072265562
 30
0.0
 40
16.53285661697387
  1
4
 41
0.8
 11
56.250000000000462
 21
483.99329733962958
 31
0.0
 73
     3
  0
TEXT
  5
1C6
  8
SPEC
 62
     7
 10
56.250000000000462
 20
492.4604407226559
 30
0.0
 40
16.53285661697387
  1
3
 41
0.8
 11
56.250000000000462
 21
508.99329733962969
 31
0.0
 73
     3
  0
LINE
  5
1C7
  8
SPEC
  6
CONTINUOUS
 62
     7
 10
50.0
 20
337.49949999999973
 30
0.0
 11
149.99999999999909
 21
337.49949999999973
 31
0.0
  0
LINE
  5
1C8
  8
SPEC
  6
CONTINUOUS
 62
     7
 10
150.0
 20
549.99949999999956
 30
0.0
 11
225.0
 21
549.99949999999944
 31
0.0
  0
TEXT
  5
1C9
  8
SPEC
 62
     7
 10
156.25
 20
554.96044072265602
 30
0.0
 40
16.53285661697387
  1
2 YEL
 41
0.8
 11
156.25
 21
571.49329733962975
 31
0.0
 73
     3
  0
TEXT
  5
1CA
  8
SPEC
 62
     7
 10
55.666969099418111
 20
561.21044072265602
 30
0.0
 40
16.53285661697387
  1
トランス
 41
0.8
 11
55.666969099418111
 21
577.74329733962975
 31
0.0
 73
     3
  0
LINE
  5
1CB
  8
SPEC
  6
CONTINUOUS
 62
     7
 10
49.999999999999538
 20
587.49949999999956
 30
0.0
 11
149.99999999999909
 21
587.49949999999956
 31
0.0
  0
TEXT
  5
1CC
  8
SPEC
 62
     7
 10
-391.0
 20
629.66555722222188
 30
0.0
 40
19.003146701388879
  1
Invisiball取付金具(壁用 1本:約230g),六角レンチ
 41
0.8
 11
-391.0
 21
648.66870392361079
 31
0.0
 73
     3
  0
TEXT
  5
1CD
  8
DIMNSIONS
 62
     7
 10
-100.0
 20
-1005.518765
 30
0.0
 40
24.4326171875
  1
(単位：mm)
 41
0.8
 11
-100.0
 21
-981.08614781250003
 31
0.0
 73
     3
  0
TEXT
  5
1CE
  8
DIMNSIONS
 62
     7
 10
-761.66666666666674
 20
-562.52111111111105
 30
0.0
 40
21.71788194444445
  1
可変振り角度（スピーカ）横方向
 41
0.8
 11
-761.66666666666674
 21
-540.80322916666671
 31
0.0
 73
     3
  0
TEXT
  5
1CF
  8
DIMNSIONS
 62
     7
 10
-449.99999999999989
 20
-861.6352321185642
 30
0.0
 40
21.71788194444445
  1
（スピーカ）縦方向
 41
0.8
 11
-449.99999999999989
 21
-839.91735017411986
 31
0.0
 73
     3
  0
TEXT
  5
1D0
  8
DIMNSIONS
 62
     7
 10
-449.99999999999989
 20
-820.76023211856432
 30
0.0
 40
21.71788194444445
  1
可変振り角度
 41
0.8
 11
-449.99999999999989
 21
-799.04235017411975
 31
0.0
 73
     3
  0
TEXT
  5
1D1
  8
DIMNSIONS
 62
     7
 10
-249.99999999999989
 20
-263.79111111111109
 30
0.0
 40
24.4326171875
  1
注1) スピーカの角度をつけた時の寸法です。
 41
0.8
 11
-249.99999999999989
 21
-239.35849392361109
 31
0.0
 73
     3
  0
LINE
  5
1D2
  8
DIMNSIONS
  6
CONTINUOUS
 62
     7
 10
-655.0
 20
300.00000000000028
 30
0.0
 11
-704.99999999999977
 21
300.00000000000028
 31
0.0
  0
LINE
  5
1D3
  8
DIMNSIONS
  6
CONTINUOUS
 62
     7
 10
-620.0
 20
204.60000000000039
 30
0.0
 11
-704.99999999999977
 21
204.60000000000039
 31
0.0
  0
LINE
  5
1D4
  8
DIMNSIONS
  6
CONTINUOUS
 62
     7
 10
-684.99999999999977
 20
300.00000000000028
 30
0.0
 11
-684.99999999999977
 21
204.60000000000039
 31
0.0
  0
LINE
  5
1D5
  8
DIMNSIONS
  6
CONTINUOUS
 62
     7
 10
-684.99999999999977
 20
300.00000000000028
 30
0.0
 11
-678.29960204849749
 21
274.99377441406278
 31
0.0
  0
LINE
  5
1D6
  8
DIMNSIONS
  6
CONTINUOUS
 62
     7
 10
-684.99999999999977
 20
300.00000000000028
 30
0.0
 11
-691.70039795150228
 21
274.99377441406278
 31
0.0
  0
LINE
  5
1D7
  8
DIMNSIONS
  6
CONTINUOUS
 62
     7
 10
-684.99999999999977
 20
204.60000000000039
 30
0.0
 11
-691.70039795150228
 21
229.60622558593789
 31
0.0
  0
LINE
  5
1D8
  8
DIMNSIONS
  6
CONTINUOUS
 62
     7
 10
-684.99999999999977
 20
204.60000000000039
 30
0.0
 11
-678.29960204849749
 21
229.60622558593789
 31
0.0
  0
TEXT
  5
1D9
  8
DIMNSIONS
 62
     7
 10
-694.93888888888875
 20
217.0222222222225
 30
0.0
 40
27.147352430555561
  1
95.4
 50
90.0
 41
0.8
 11
-722.08624131944441
 21
217.0222222222225
 31
0.0
 73
     3
  0
LINE
  5
1DA
  8
DIMNSIONS
  6
CONTINUOUS
 62
     7
 10
-650.99999999999977
 20
169.99999999999969
 30
0.0
 11
-704.99999999999977
 21
169.99999999999969
 31
0.0
  0
LINE
  5
1DB
  8
DIMNSIONS
  6
CONTINUOUS
 62
     7
 10
-651.0
 20
80.000000000000213
 30
0.0
 11
-704.99999999999977
 21
80.000000000000213
 31
0.0
  0
LINE
  5
1DC
  8
DIMNSIONS
  6
CONTINUOUS
 62
     7
 10
-684.99999999999977
 20
169.99999999999969
 30
0.0
 11
-684.99999999999977
 21
80.000000000000213
 31
0.0
  0
LINE
  5
1DD
  8
DIMNSIONS
  6
CONTINUOUS
 62
     7
 10
-684.99999999999977
 20
169.99999999999969
 30
0.0
 11
-678.29960204849749
 21
144.9937744140623
 31
0.0
  0
LINE
  5
1DE
  8
DIMNSIONS
  6
CONTINUOUS
 62
     7
 10
-684.99999999999977
 20
169.99999999999969
 30
0.0
 11
-691.70039795150228
 21
144.9937744140623
 31
0.0
  0
LINE
  5
1DF
  8
DIMNSIONS
  6
CONTINUOUS
 62
     7
 10
-684.99999999999977
 20
80.000000000000213
 30
0.0
 11
-691.70039795150228
 21
105.0062255859377
 31
0.0
  0
LINE
  5
1E0
  8
DIMNSIONS
  6
CONTINUOUS
 62
     7
 10
-684.99999999999977
 20
80.000000000000213
 30
0.0
 11
-678.29960204849749
 21
105.0062255859377
 31
0.0
  0
TEXT
  5
1E1
  8
DIMNSIONS
 62
     7
 10
-694.93888888888875
 20
107.3611111111111
 30
0.0
 40
27.147352430555561
  1
90
 50
90.0
 41
0.8
 11
-722.08624131944441
 21
107.3611111111111
 31
0.0
 73
     3
  0
LINE
  5
1E2
  8
DIMNSIONS
  6
CONTINUOUS
 62
     7
 10
-635.0
 20
63.00000000000022
 30
0.0
 11
-635.0
 21
5.000000000000397
 31
0.0
  0
LINE
  5
1E3
  8
DIMNSIONS
  6
CONTINUOUS
 62
     7
 10
-564.99999999999955
 20
63.00000000000022
 30
0.0
 11
-564.99999999999955
 21
5.000000000000397
 31
0.0
  0
LINE
  5
1E4
  8
DIMNSIONS
  6
CONTINUOUS
 62
     7
 10
-635.0
 20
25.000000000000401
 30
0.0
 11
-564.99999999999955
 21
25.000000000000401
 31
0.0
  0
LINE
  5
1E5
  8
DIMNSIONS
  6
CONTINUOUS
 62
     7
 10
-635.0
 20
25.000000000000401
 30
0.0
 11
-609.9937744140625
 21
31.700397951502829
 31
0.0
  0
LINE
  5
1E6
  8
DIMNSIONS
  6
CONTINUOUS
 62
     7
 10
-635.0
 20
25.000000000000401
 30
0.0
 11
-609.9937744140625
 21
18.29960204849797
 31
0.0
  0
LINE
  5
1E7
  8
DIMNSIONS
  6
CONTINUOUS
 62
     7
 10
-564.99999999999955
 20
25.000000000000401
 30
0.0
 11
-590.00622558593693
 21
18.29960204849796
 31
0.0
  0
LINE
  5
1E8
  8
DIMNSIONS
  6
CONTINUOUS
 62
     7
 10
-564.99999999999955
 20
25.000000000000401
 30
0.0
 11
-590.00622558593693
 21
31.70039795150284
 31
0.0
  0
TEXT
  5
1E9
  8
DIMNSIONS
 62
     7
 10
-617.6388888888888
 20
34.938888888889288
 30
0.0
 40
27.147352430555561
  1
70
 41
0.8
 11
-617.6388888888888
 21
62.086241319444852
 31
0.0
 73
     3
  0
LINE
  5
1EA
  8
DIMNSIONS
  6
CONTINUOUS
 62
     7
 10
-387.5
 20
187.0000000000002
 30
0.0
 11
-387.5
 21
345.00000000000063
 31
0.0
  0
LINE
  5
1EB
  8
DIMNSIONS
  6
CONTINUOUS
 62
     7
 10
-317.5
 20
187.0000000000002
 30
0.0
 11
-317.5
 21
345.00000000000063
 31
0.0
  0
LINE
  5
1EC
  8
DIMNSIONS
  6
CONTINUOUS
 62
     7
 10
-387.5
 20
325.00000000000063
 30
0.0
 11
-317.5
 21
325.00000000000063
 31
0.0
  0
LINE
  5
1ED
  8
DIMNSIONS
  6
CONTINUOUS
 62
     7
 10
-387.5
 20
325.00000000000063
 30
0.0
 11
-362.4937744140625
 21
331.70039795150308
 31
0.0
  0
LINE
  5
1EE
  8
DIMNSIONS
  6
CONTINUOUS
 62
     7
 10
-387.5
 20
325.00000000000063
 30
0.0
 11
-362.4937744140625
 21
318.29960204849817
 31
0.0
  0
LINE
  5
1EF
  8
DIMNSIONS
  6
CONTINUOUS
 62
     7
 10
-317.5
 20
325.00000000000063
 30
0.0
 11
-342.5062255859375
 21
318.29960204849817
 31
0.0
  0
LINE
  5
1F0
  8
DIMNSIONS
  6
CONTINUOUS
 62
     7
 10
-317.5
 20
325.00000000000063
 30
0.0
 11
-342.5062255859375
 21
331.70039795150308
 31
0.0
  0
TEXT
  5
1F1
  8
DIMNSIONS
 62
     7
 10
-370.13888888888891
 20
334.93888888888949
 30
0.0
 40
27.147352430555561
  1
70
 41
0.8
 11
-370.13888888888891
 21
362.08624131944498
 31
0.0
 73
     3
  0
LINE
  5
1F2
  8
DIMNSIONS
  6
CONTINUOUS
 62
     7
 10
-377.50000000000051
 20
145.0
 30
0.0
 11
-377.50000000000051
 21
220.0000000000006
 31
0.0
  0
LINE
  5
1F3
  8
DIMNSIONS
  6
CONTINUOUS
 62
     7
 10
-352.5
 20
179.5000000000002
 30
0.0
 11
-352.5
 21
220.0000000000006
 31
0.0
  0
LINE
  5
1F4
  8
DIMNSIONS
  6
CONTINUOUS
 62
     7
 10
-352.5
 20
200.0000000000006
 30
0.0
 11
-377.50000000000051
 21
200.0000000000006
 31
0.0
  0
LINE
  5
1F5
  8
DIMNSIONS
  6
CONTINUOUS
 62
     7
 10
-377.50000000000051
 20
200.0000000000006
 30
0.0
 11
-445.2777777777776
 21
200.0000000000006
 31
0.0
  0
LINE
  5
1F6
  8
DIMNSIONS
  6
CONTINUOUS
 62
     7
 10
-377.50000000000051
 20
200.0000000000006
 30
0.0
 11
-402.50622558593801
 21
193.2996020484982
 31
0.0
  0
LINE
  5
1F7
  8
DIMNSIONS
  6
CONTINUOUS
 62
     7
 10
-377.50000000000051
 20
200.0000000000006
 30
0.0
 11
-402.50622558593801
 21
206.70039795150311
 31
0.0
  0
LINE
  5
1F8
  8
DIMNSIONS
  6
CONTINUOUS
 62
     7
 10
-352.5
 20
200.0000000000006
 30
0.0
 11
-302.5
 21
200.0000000000006
 31
0.0
  0
LINE
  5
1F9
  8
DIMNSIONS
  6
CONTINUOUS
 62
     7
 10
-352.5
 20
200.0000000000006
 30
0.0
 11
-327.4937744140625
 21
206.70039795150299
 31
0.0
  0
LINE
  5
1FA
  8
DIMNSIONS
  6
CONTINUOUS
 62
     7
 10
-352.5
 20
200.0000000000006
 30
0.0
 11
-327.4937744140625
 21
193.2996020484982
 31
0.0
  0
TEXT
  5
1FB
  8
DIMNSIONS
 62
     7
 10
-445.27777777777771
 20
209.93888888888949
 30
0.0
 40
27.147352430555561
  1
25
 41
0.8
 11
-445.27777777777771
 21
237.08624131944509
 31
0.0
 73
     3
  0
LINE
  5
1FC
  8
DIMNSIONS
  6
CONTINUOUS
 62
     7
 10
-327.5000000000004
 20
145.0
 30
0.0
 11
-327.5000000000004
 21
295.00000000000063
 31
0.0
  0
LINE
  5
1FD
  8
DIMNSIONS
  6
CONTINUOUS
 62
     7
 10
-317.5
 20
187.0000000000002
 30
0.0
 11
-317.5
 21
295.00000000000063
 31
0.0
  0
LINE
  5
1FE
  8
DIMNSIONS
  6
CONTINUOUS
 62
     7
 10
-317.5
 20
275.00000000000063
 30
0.0
 11
-327.5000000000004
 21
275.00000000000063
 31
0.0
  0
LINE
  5
1FF
  8
DIMNSIONS
  6
CONTINUOUS
 62
     7
 10
-327.5000000000004
 20
275.00000000000063
 30
0.0
 11
-377.50000000000051
 21
275.00000000000063
 31
0.0
  0
LINE
  5
200
  8
DIMNSIONS
  6
CONTINUOUS
 62
     7
 10
-327.5000000000004
 20
275.00000000000063
 30
0.0
 11
-352.50622558593801
 21
268.29960204849817
 31
0.0
  0
LINE
  5
201
  8
DIMNSIONS
  6
CONTINUOUS
 62
     7
 10
-327.5000000000004
 20
275.00000000000063
 30
0.0
 11
-352.50622558593801
 21
281.70039795150308
 31
0.0
  0
LINE
  5
202
  8
DIMNSIONS
  6
CONTINUOUS
 62
     7
 10
-317.5
 20
275.00000000000063
 30
0.0
 11
-249.72222222222209
 21
275.00000000000063
 31
0.0
  0
LINE
  5
203
  8
DIMNSIONS
  6
CONTINUOUS
 62
     7
 10
-317.5
 20
275.00000000000063
 30
0.0
 11
-292.4937744140625
 21
281.70039795150308
 31
0.0
  0
LINE
  5
204
  8
DIMNSIONS
  6
CONTINUOUS
 62
     7
 10
-317.5
 20
275.00000000000063
 30
0.0
 11
-292.4937744140625
 21
268.29960204849817
 31
0.0
  0
TEXT
  5
205
  8
DIMNSIONS
 62
     7
 10
-284.99999999999989
 20
284.93888888888961
 30
0.0
 40
27.147352430555561
  1
10
 41
0.8
 11
-284.99999999999989
 21
312.08624131944509
 31
0.0
 73
     3
  0
LINE
  5
206
  8
DIMNSIONS
  6
CONTINUOUS
 62
     7
 10
-327.5000000000004
 20
145.0
 30
0.0
 11
-327.5000000000004
 21
245.0000000000006
 31
0.0
  0
LINE
  5
207
  8
DIMNSIONS
  6
CONTINUOUS
 62
     7
 10
-352.5
 20
179.5000000000002
 30
0.0
 11
-352.5
 21
245.0000000000006
 31
0.0
  0
LINE
  5
208
  8
DIMNSIONS
  6
CONTINUOUS
 62
     7
 10
-352.5
 20
225.0000000000006
 30
0.0
 11
-327.5000000000004
 21
225.0000000000006
 31
0.0
  0
LINE
  5
209
  8
DIMNSIONS
  6
CONTINUOUS
 62
     7
 10
-327.5000000000004
 20
225.0000000000006
 30
0.0
 11
-249.72222222222209
 21
225.0000000000006
 31
0.0
  0
LINE
  5
20A
  8
DIMNSIONS
  6
CONTINUOUS
 62
     7
 10
-327.5000000000004
 20
225.0000000000006
 30
0.0
 11
-302.4937744140629
 21
231.70039795150299
 31
0.0
  0
LINE
  5
20B
  8
DIMNSIONS
  6
CONTINUOUS
 62
     7
 10
-327.5000000000004
 20
225.0000000000006
 30
0.0
 11
-302.4937744140629
 21
218.2996020484982
 31
0.0
  0
LINE
  5
20C
  8
DIMNSIONS
  6
CONTINUOUS
 62
     7
 10
-352.5
 20
225.0000000000006
 30
0.0
 11
-402.5
 21
225.0000000000006
 31
0.0
  0
LINE
  5
20D
  8
DIMNSIONS
  6
CONTINUOUS
 62
     7
 10
-352.5
 20
225.0000000000006
 30
0.0
 11
-377.5062255859375
 21
218.29960204849809
 31
0.0
  0
LINE
  5
20E
  8
DIMNSIONS
  6
CONTINUOUS
 62
     7
 10
-352.5
 20
225.0000000000006
 30
0.0
 11
-377.5062255859375
 21
231.70039795150311
 31
0.0
  0
TEXT
  5
20F
  8
DIMNSIONS
 62
     7
 10
-284.99999999999989
 20
234.93888888888961
 30
0.0
 40
27.147352430555561
  1
25
 41
0.8
 11
-284.99999999999989
 21
262.08624131944509
 31
0.0
 73
     3
  0
LINE
  5
210
  8
DIMNSIONS
  6
CONTINUOUS
 62
     7
 10
-300.5
 20
170.0000000000002
 30
0.0
 11
-139.9999999999998
 21
170.0000000000002
 31
0.0
  0
LINE
  5
211
  8
DIMNSIONS
  6
CONTINUOUS
 62
     7
 10
-332.5
 20
159.5000000000002
 30
0.0
 11
-139.9999999999998
 21
159.5000000000002
 31
0.0
  0
LINE
  5
212
  8
DIMNSIONS
  6
CONTINUOUS
 62
     7
 10
-159.9999999999998
 20
159.5000000000002
 30
0.0
 11
-159.9999999999998
 21
170.0000000000002
 31
0.0
  0
LINE
  5
213
  8
DIMNSIONS
  6
CONTINUOUS
 62
     7
 10
-159.9999999999998
 20
170.0000000000002
 30
0.0
 11
-159.9999999999998
 21
270.55555555555588
 31
0.0
  0
LINE
  5
214
  8
DIMNSIONS
  6
CONTINUOUS
 62
     7
 10
-159.9999999999998
 20
170.0000000000002
 30
0.0
 11
-166.70039795150231
 21
195.0062255859377
 31
0.0
  0
LINE
  5
215
  8
DIMNSIONS
  6
CONTINUOUS
 62
     7
 10
-159.9999999999998
 20
170.0000000000002
 30
0.0
 11
-153.29960204849741
 21
195.0062255859377
 31
0.0
  0
LINE
  5
216
  8
DIMNSIONS
  6
CONTINUOUS
 62
     7
 10
-159.9999999999998
 20
159.5000000000002
 30
0.0
 11
-159.9999999999998
 21
109.5000000000002
 31
0.0
  0
LINE
  5
217
  8
DIMNSIONS
  6
CONTINUOUS
 62
     7
 10
-159.9999999999998
 20
159.5000000000002
 30
0.0
 11
-153.29960204849741
 21
134.4937744140627
 31
0.0
  0
LINE
  5
218
  8
DIMNSIONS
  6
CONTINUOUS
 62
     7
 10
-159.9999999999998
 20
159.5000000000002
 30
0.0
 11
-166.70039795150231
 21
134.4937744140627
 31
0.0
  0
TEXT
  5
219
  8
DIMNSIONS
 62
     7
 10
-169.9388888888887
 20
200.0000000000004
 30
0.0
 40
27.147352430555561
  1
10.5
 50
90.0
 41
0.8
 11
-197.0862413194443
 21
200.0000000000004
 31
0.0
 73
     3
  0
LINE
  5
21A
  8
DIMNSIONS
  6
CONTINUOUS
 62
     7
 10
-332.5
 20
159.5000000000002
 30
0.0
 11
-189.9999999999998
 21
159.5000000000002
 31
0.0
  0
LINE
  5
21B
  8
DIMNSIONS
  6
CONTINUOUS
 62
     7
 10
-307.5000000000004
 20
125.0
 30
0.0
 11
-189.9999999999998
 21
125.0
 31
0.0
  0
LINE
  5
21C
  8
DIMNSIONS
  6
CONTINUOUS
 62
     7
 10
-209.99999999999989
 20
125.0
 30
0.0
 11
-209.99999999999989
 21
159.5000000000002
 31
0.0
  0
LINE
  5
21D
  8
DIMNSIONS
  6
CONTINUOUS
 62
     7
 10
-209.99999999999989
 20
159.5000000000002
 30
0.0
 11
-209.99999999999989
 21
209.5000000000002
 31
0.0
  0
LINE
  5
21E
  8
DIMNSIONS
  6
CONTINUOUS
 62
     7
 10
-209.99999999999989
 20
159.5000000000002
 30
0.0
 11
-216.70039795150231
 21
184.5062255859377
 31
0.0
  0
LINE
  5
21F
  8
DIMNSIONS
  6
CONTINUOUS
 62
     7
 10
-209.99999999999989
 20
159.5000000000002
 30
0.0
 11
-203.29960204849741
 21
184.5062255859377
 31
0.0
  0
LINE
  5
220
  8
DIMNSIONS
  6
CONTINUOUS
 62
     7
 10
-209.99999999999989
 20
125.0
 30
0.0
 11
-209.99999999999989
 21
4.444444444444855
 31
0.0
  0
LINE
  5
221
  8
DIMNSIONS
  6
CONTINUOUS
 62
     7
 10
-209.99999999999989
 20
125.0
 30
0.0
 11
-203.29960204849749
 21
99.993774414062514
 31
0.0
  0
LINE
  5
222
  8
DIMNSIONS
  6
CONTINUOUS
 62
     7
 10
-209.99999999999989
 20
125.0
 30
0.0
 11
-216.70039795150231
 21
99.993774414062514
 31
0.0
  0
TEXT
  5
223
  8
DIMNSIONS
 62
     7
 10
-219.93888888888881
 20
4.4444444444448523
 30
0.0
 40
27.147352430555561
  1
34.5
 50
90.0
 41
0.8
 11
-247.0862413194443
 21
4.444444444444855
 31
0.0
 73
     3
  0
LINE
  5
224
  8
DIMNSIONS
  6
CONTINUOUS
 62
     7
 10
-332.5
 20
90.500000000000213
 30
0.0
 11
-239.99999999999989
 21
90.500000000000213
 31
0.0
  0
LINE
  5
225
  8
DIMNSIONS
  6
CONTINUOUS
 62
     7
 10
-307.5000000000004
 20
125.0
 30
0.0
 11
-239.99999999999989
 21
125.0
 31
0.0
  0
LINE
  5
226
  8
DIMNSIONS
  6
CONTINUOUS
 62
     7
 10
-259.99999999999989
 20
125.0
 30
0.0
 11
-259.99999999999989
 21
90.500000000000213
 31
0.0
  0
LINE
  5
227
  8
DIMNSIONS
  6
CONTINUOUS
 62
     7
 10
-259.99999999999989
 20
90.500000000000213
 30
0.0
 11
-259.99999999999989
 21
4.444444444444855
 31
0.0
  0
LINE
  5
228
  8
DIMNSIONS
  6
CONTINUOUS
 62
     7
 10
-259.99999999999989
 20
90.500000000000213
 30
0.0
 11
-253.29960204849749
 21
65.493774414062727
 31
0.0
  0
LINE
  5
229
  8
DIMNSIONS
  6
CONTINUOUS
 62
     7
 10
-259.99999999999989
 20
90.500000000000213
 30
0.0
 11
-266.7003979515024
 21
65.493774414062727
 31
0.0
  0
LINE
  5
22A
  8
DIMNSIONS
  6
CONTINUOUS
 62
     7
 10
-259.99999999999989
 20
125.0
 30
0.0
 11
-259.99999999999989
 21
175.0
 31
0.0
  0
LINE
  5
22B
  8
DIMNSIONS
  6
CONTINUOUS
 62
     7
 10
-259.99999999999989
 20
125.0
 30
0.0
 11
-266.7003979515024
 21
150.0062255859375
 31
0.0
  0
LINE
  5
22C
  8
DIMNSIONS
  6
CONTINUOUS
 62
     7
 10
-259.99999999999989
 20
125.0
 30
0.0
 11
-253.29960204849741
 21
150.0062255859375
 31
0.0
  0
TEXT
  5
22D
  8
DIMNSIONS
 62
     7
 10
-269.93888888888881
 20
4.4444444444448523
 30
0.0
 40
27.147352430555561
  1
34.5
 50
90.0
 41
0.8
 11
-297.0862413194443
 21
4.444444444444855
 31
0.0
 73
     3
  0
LINE
  5
22E
  8
DIMNSIONS
  6
CONTINUOUS
 62
     7
 10
-300.5
 20
80.000000000000213
 30
0.0
 11
-89.999999999999915
 21
80.000000000000213
 31
0.0
  0
LINE
  5
22F
  8
DIMNSIONS
  6
CONTINUOUS
 62
     7
 10
-300.5
 20
170.0000000000002
 30
0.0
 11
-89.999999999999915
 21
170.0000000000002
 31
0.0
  0
LINE
  5
230
  8
DIMNSIONS
  6
CONTINUOUS
 62
     7
 10
-109.9999999999999
 20
80.000000000000213
 30
0.0
 11
-109.9999999999999
 21
170.0000000000002
 31
0.0
  0
LINE
  5
231
  8
DIMNSIONS
  6
CONTINUOUS
 62
     7
 10
-109.9999999999999
 20
80.000000000000213
 30
0.0
 11
-116.7003979515023
 21
105.0062255859377
 31
0.0
  0
LINE
  5
232
  8
DIMNSIONS
  6
CONTINUOUS
 62
     7
 10
-109.9999999999999
 20
80.000000000000213
 30
0.0
 11
-103.2996020484975
 21
105.0062255859377
 31
0.0
  0
LINE
  5
233
  8
DIMNSIONS
  6
CONTINUOUS
 62
     7
 10
-109.9999999999999
 20
170.0000000000002
 30
0.0
 11
-103.2996020484975
 21
144.9937744140627
 31
0.0
  0
LINE
  5
234
  8
DIMNSIONS
  6
CONTINUOUS
 62
     7
 10
-109.9999999999999
 20
170.0000000000002
 30
0.0
 11
-116.7003979515023
 21
144.9937744140627
 31
0.0
  0
TEXT
  5
235
  8
DIMNSIONS
 62
     7
 10
-119.9388888888888
 20
107.3611111111113
 30
0.0
 40
27.147352430555561
  1
90
 50
90.0
 41
0.8
 11
-147.08624131944441
 21
107.3611111111113
 31
0.0
 73
     3
  0
LINE
  5
236
  8
DIMNSIONS
  6
CONTINUOUS
 62
     7
 10
-621.58386283807738
 20
-434.86365017698722
 30
0.0
 11
-640.60499050918395
 21
-481.94259321289712
 31
0.0
  0
LINE
  5
237
  8
DIMNSIONS
  6
CONTINUOUS
 62
     7
 10
-492.99613716192232
 20
-434.86365017698722
 30
0.0
 11
-473.97500949081558
 21
-481.9425932128969
 31
0.0
  0
ARC
  5
238
  8
DIMNSIONS
  6
CONTINUOUS
 62
     7
 10
-557.29000000000019
 20
-275.73075551110969
 30
0.0
 40
202.4066313127685
 50
248.00000000000031
 51
291.99999999999989
  0
LINE
  5
239
  8
DIMNSIONS
  6
CONTINUOUS
 62
     7
 10
-481.46714135913379
 20
-463.39891612156111
 30
0.0
 11
-502.41125623172121
 21
-478.61570628792532
 31
0.0
  0
LINE
  5
23A
  8
DIMNSIONS
  6
CONTINUOUS
 62
     7
 10
-481.46714135913379
 20
-463.39891612156111
 30
0.0
 11
-507.21367198175602
 21
-466.10498553339619
 31
0.0
  0
LINE
  5
23B
  8
DIMNSIONS
  6
CONTINUOUS
 62
     7
 10
-633.11285864086597
 20
-463.39891612156117
 30
0.0
 11
-607.36632801824385
 21
-466.1049855333963
 31
0.0
  0
LINE
  5
23C
  8
DIMNSIONS
  6
CONTINUOUS
 62
     7
 10
-633.11285864086597
 20
-463.39891612156117
 30
0.0
 11
-612.16874376827866
 21
-478.6157062879256
 31
0.0
  0
TEXT
  5
23D
  8
DIMNSIONS
 62
     7
 10
-592.56777777777791
 20
-513.47627571276701
 30
0.0
 40
27.147352430555561
  1
44°
 41
0.8
 11
-592.56777777777791
 21
-486.32892328221141
 31
0.0
 73
     3
  0
LINE
  5
23E
  8
DIMNSIONS
  6
CONTINUOUS
 62
     7
 10
-464.57999999999993
 20
-334.84689591111061
 30
0.0
 11
-464.57999999999993
 21
-129.3595392977698
 31
0.0
  0
LINE
  5
23F
  8
DIMNSIONS
  6
CONTINUOUS
 62
     7
 10
-510.93022933962732
 20
-246.8333591492823
 30
0.0
 11
-552.03984716049001
 21
-146.597753607398
 31
0.0
  0
ARC
  5
240
  8
DIMNSIONS
  6
CONTINUOUS
 62
     7
 10
-464.57999999999993
 20
-359.84689591111078
 30
0.0
 40
210.48735661334089
 50
90.0
 51
112.2999999999999
  0
LINE
  5
241
  8
DIMNSIONS
  6
CONTINUOUS
 62
     7
 10
-544.45072396991009
 20
-165.10194797511369
 30
0.0
 11
-523.77536859411725
 21
-149.52195019437039
 31
0.0
  0
LINE
  5
242
  8
DIMNSIONS
  6
CONTINUOUS
 62
     7
 10
-544.45072396991009
 20
-165.10194797511369
 30
0.0
 11
-518.75534209183058
 21
-161.9469517939813
 31
0.0
  0
LINE
  5
243
  8
DIMNSIONS
  6
CONTINUOUS
 62
     7
 10
-464.57999999999993
 20
-149.3595392977698
 30
0.0
 11
-489.58622558593743
 21
-156.0599372492722
 31
0.0
  0
LINE
  5
244
  8
DIMNSIONS
  6
CONTINUOUS
 62
     7
 10
-464.57999999999993
 20
-149.3595392977698
 30
0.0
 11
-489.58622558593743
 21
-142.6591413462674
 31
0.0
  0
TEXT
  5
245
  8
DIMNSIONS
 62
     7
 10
-551.59876171147698
 20
-140.01931953006121
 30
0.0
 40
27.147352430555561
  1
22.3°
 50
8.6625926720117441
 41
0.8
 11
-555.68757157636503
 21
-113.18165238335141
 31
0.0
 73
     3
  0
LINE
  5
246
  8
DIMNSIONS
  6
CONTINUOUS
 62
     7
 10
-612.28999999999985
 20
-197.58075551111071
 30
0.0
 11
-719.99999999999989
 21
-197.58075551111071
 31
0.0
  0
LINE
  5
247
  8
DIMNSIONS
  6
CONTINUOUS
 62
     7
 10
-619.67377237112976
 20
-257.58075551111068
 30
0.0
 11
-719.99999999999989
 21
-257.58075551111068
 31
0.0
  0
LINE
  5
248
  8
DIMNSIONS
  6
CONTINUOUS
 62
     7
 10
-699.99999999999989
 20
-197.58075551111071
 30
0.0
 11
-699.99999999999989
 21
-257.58075551111068
 31
0.0
  0
LINE
  5
249
  8
DIMNSIONS
  6
CONTINUOUS
 62
     7
 10
-699.99999999999989
 20
-197.58075551111071
 30
0.0
 11
-693.29960204849738
 21
-222.58698109704821
 31
0.0
  0
LINE
  5
24A
  8
DIMNSIONS
  6
CONTINUOUS
 62
     7
 10
-699.99999999999989
 20
-197.58075551111071
 30
0.0
 11
-706.7003979515024
 21
-222.58698109704821
 31
0.0
  0
LINE
  5
24B
  8
DIMNSIONS
  6
CONTINUOUS
 62
     7
 10
-699.99999999999989
 20
-257.58075551111068
 30
0.0
 11
-706.7003979515024
 21
-232.57452992517321
 31
0.0
  0
LINE
  5
24C
  8
DIMNSIONS
  6
CONTINUOUS
 62
     7
 10
-699.99999999999989
 20
-257.58075551111068
 30
0.0
 11
-693.29960204849738
 21
-232.57452992517321
 31
0.0
  0
TEXT
  5
24D
  8
DIMNSIONS
 62
     7
 10
-709.93888888888875
 20
-245.21964439999959
 30
0.0
 40
27.147352430555561
  1
60
 50
90.0
 41
0.8
 11
-737.08624131944441
 21
-245.21964439999959
 31
0.0
 73
     3
  0
LINE
  5
24E
  8
DIMNSIONS
  6
CONTINUOUS
 62
     7
 10
-619.67377237112976
 20
-257.58075551111068
 30
0.0
 11
-719.99999999999989
 21
-257.58075551111068
 31
0.0
  0
LINE
  5
24F
  8
DIMNSIONS
  6
CONTINUOUS
 62
     7
 10
-577.29000000000042
 20
-402.36111111111109
 30
0.0
 11
-719.99999999999989
 21
-402.36111111111109
 31
0.0
  0
LINE
  5
250
  8
DIMNSIONS
  6
CONTINUOUS
 62
     7
 10
-699.99999999999989
 20
-257.58075551111068
 30
0.0
 11
-699.99999999999989
 21
-402.36111111111109
 31
0.0
  0
LINE
  5
251
  8
DIMNSIONS
  6
CONTINUOUS
 62
     7
 10
-699.99999999999989
 20
-257.58075551111068
 30
0.0
 11
-693.29960204849738
 21
-282.58698109704818
 31
0.0
  0
LINE
  5
252
  8
DIMNSIONS
  6
CONTINUOUS
 62
     7
 10
-699.99999999999989
 20
-257.58075551111068
 30
0.0
 11
-706.7003979515024
 21
-282.58698109704818
 31
0.0
  0
LINE
  5
253
  8
DIMNSIONS
  6
CONTINUOUS
 62
     7
 10
-699.99999999999989
 20
-402.36111111111109
 30
0.0
 11
-706.7003979515024
 21
-377.35488552517359
 31
0.0
  0
LINE
  5
254
  8
DIMNSIONS
  6
CONTINUOUS
 62
     7
 10
-699.99999999999989
 20
-402.36111111111109
 30
0.0
 11
-693.29960204849738
 21
-377.35488552517359
 31
0.0
  0
TEXT
  5
255
  8
DIMNSIONS
 62
     7
 10
-709.93888888888875
 20
-356.42926664444428
 30
0.0
 40
27.147352430555561
  1
145
 50
90.0
 41
0.8
 11
-737.08624131944441
 21
-356.42926664444428
 31
0.0
 73
     3
  0
LINE
  5
256
  8
DIMNSIONS
  6
CONTINUOUS
 62
     7
 10
-668.48000000000002
 20
-614.73051880000003
 30
0.0
 11
-719.99999999999989
 21
-614.73051880000003
 31
0.0
  0
LINE
  5
257
  8
DIMNSIONS
  6
CONTINUOUS
 62
     7
 10
-668.48000000000002
 20
-850.0
 30
0.0
 11
-719.99999999999989
 21
-850.0
 31
0.0
  0
LINE
  5
258
  8
DIMNSIONS
  6
CONTINUOUS
 62
     7
 10
-699.99999999999989
 20
-614.73051880000003
 30
0.0
 11
-699.99999999999989
 21
-850.0
 31
0.0
  0
LINE
  5
259
  8
DIMNSIONS
  6
CONTINUOUS
 62
     7
 10
-699.99999999999989
 20
-614.73051880000003
 30
0.0
 11
-693.29960204849738
 21
-639.73674438593753
 31
0.0
  0
LINE
  5
25A
  8
DIMNSIONS
  6
CONTINUOUS
 62
     7
 10
-699.99999999999989
 20
-614.73051880000003
 30
0.0
 11
-706.7003979515024
 21
-639.73674438593753
 31
0.0
  0
LINE
  5
25B
  8
DIMNSIONS
  6
CONTINUOUS
 62
     7
 10
-699.99999999999989
 20
-850.0
 30
0.0
 11
-706.7003979515024
 21
-824.9937744140625
 31
0.0
  0
LINE
  5
25C
  8
DIMNSIONS
  6
CONTINUOUS
 62
     7
 10
-699.99999999999989
 20
-850.0
 30
0.0
 11
-693.29960204849738
 21
-824.9937744140625
 31
0.0
  0
TEXT
  5
25D
  8
DIMNSIONS
 62
     7
 10
-709.93888888888875
 20
-758.82359273333327
 30
0.0
 40
27.147352430555561
  1
235
 50
90.0
 41
0.8
 11
-737.08624131944441
 21
-758.82359273333327
 31
0.0
 73
     3
  0
LINE
  5
25E
  8
DIMNSIONS
  6
CONTINUOUS
 62
     7
 10
-650.0
 20
-868.48000000000002
 30
0.0
 11
-650.0
 21
-945.0
 31
0.0
  0
LINE
  5
25F
  8
DIMNSIONS
  6
CONTINUOUS
 62
     7
 10
-464.58000000000033
 20
-868.48000000000002
 30
0.0
 11
-464.58000000000033
 21
-945.0
 31
0.0
  0
LINE
  5
260
  8
DIMNSIONS
  6
CONTINUOUS
 62
     7
 10
-650.0
 20
-925.0
 30
0.0
 11
-464.58000000000033
 21
-925.0
 31
0.0
  0
LINE
  5
261
  8
DIMNSIONS
  6
CONTINUOUS
 62
     7
 10
-650.0
 20
-925.0
 30
0.0
 11
-624.99377441406239
 21
-918.2996020484976
 31
0.0
  0
LINE
  5
262
  8
DIMNSIONS
  6
CONTINUOUS
 62
     7
 10
-650.0
 20
-925.0
 30
0.0
 11
-624.99377441406239
 21
-931.70039795150228
 31
0.0
  0
LINE
  5
263
  8
DIMNSIONS
  6
CONTINUOUS
 62
     7
 10
-464.58000000000033
 20
-925.0
 30
0.0
 11
-489.58622558593783
 21
-931.70039795150228
 31
0.0
  0
LINE
  5
264
  8
DIMNSIONS
  6
CONTINUOUS
 62
     7
 10
-464.58000000000033
 20
-925.0
 30
0.0
 11
-489.58622558593783
 21
-918.2996020484976
 31
0.0
  0
TEXT
  5
265
  8
DIMNSIONS
 62
     7
 10
-583.74833333333345
 20
-915.06111111111113
 30
0.0
 40
27.147352430555561
  1
185
 41
0.8
 11
-583.74833333333345
 21
-887.91375868055547
 31
0.0
 73
     3
  0
LINE
  5
266
  8
DIMNSIONS
  6
CONTINUOUS
 62
     7
 10
-99.999999999999915
 20
-865.43323239999984
 30
0.0
 11
-99.999999999999915
 21
-945.0
 31
0.0
  0
LINE
  5
267
  8
DIMNSIONS
  6
CONTINUOUS
 62
     7
 10
44.780355599999993
 20
-856.2845491756641
 30
0.0
 11
44.780355599999993
 21
-945.0
 31
0.0
  0
LINE
  5
268
  8
DIMNSIONS
  6
CONTINUOUS
 62
     7
 10
-99.999999999999915
 20
-925.0
 30
0.0
 11
44.780355599999993
 21
-925.0
 31
0.0
  0
LINE
  5
269
  8
DIMNSIONS
  6
CONTINUOUS
 62
     7
 10
-99.999999999999915
 20
-925.0
 30
0.0
 11
-74.993774414062401
 21
-918.2996020484976
 31
0.0
  0
LINE
  5
26A
  8
DIMNSIONS
  6
CONTINUOUS
 62
     7
 10
-99.999999999999915
 20
-925.0
 30
0.0
 11
-74.993774414062401
 21
-931.70039795150228
 31
0.0
  0
LINE
  5
26B
  8
DIMNSIONS
  6
CONTINUOUS
 62
     7
 10
44.780355599999993
 20
-925.0
 30
0.0
 11
19.774130014062489
 21
-931.70039795150228
 31
0.0
  0
LINE
  5
26C
  8
DIMNSIONS
  6
CONTINUOUS
 62
     7
 10
44.780355599999993
 20
-925.0
 30
0.0
 11
19.774130014062489
 21
-918.2996020484976
 31
0.0
  0
TEXT
  5
26D
  8
DIMNSIONS
 62
     7
 10
-26.458333333333329
 20
-915.06111111111113
 30
0.0
 40
27.147352430555561
  1
145
 41
0.8
 11
-26.458333333333329
 21
-887.91375868055547
 31
0.0
 73
     3
  0
LINE
  5
26E
  8
DIMNSIONS
  6
CONTINUOUS
 62
     7
 10
-159.83886194708651
 20
-803.20317436767368
 30
0.0
 11
-207.77747002667741
 21
-819.24320825454902
 31
0.0
  0
LINE
  5
26F
  8
DIMNSIONS
  6
CONTINUOUS
 62
     7
 10
-159.83886194708651
 20
-678.41971952273536
 30
0.0
 11
-207.77747002667741
 21
-662.37968563585991
 31
0.0
  0
ARC
  5
270
  8
DIMNSIONS
  6
CONTINUOUS
 62
     7
 10
26.630355599999831
 20
-740.81144694520435
 30
0.0
 40
227.1812490807358
 50
161.5
 51
198.50000000000011
  0
LINE
  5
271
  8
DIMNSIONS
  6
CONTINUOUS
 62
     7
 10
-188.81099692255339
 20
-812.89711512644737
 30
0.0
 11
-202.9108027273289
 21
-791.1853181710843
 31
0.0
  0
LINE
  5
272
  8
DIMNSIONS
  6
CONTINUOUS
 62
     7
 10
-188.81099692255339
 20
-812.89711512644737
 30
0.0
 11
-190.1658884602347
 21
-787.04424449890553
 31
0.0
  0
LINE
  5
273
  8
DIMNSIONS
  6
CONTINUOUS
 62
     7
 10
-188.81099692255339
 20
-668.7257787639619
 30
0.0
 11
-190.1658884602347
 21
-694.57864939150363
 31
0.0
  0
LINE
  5
274
  8
DIMNSIONS
  6
CONTINUOUS
 62
     7
 10
-188.81099692255339
 20
-668.7257787639619
 30
0.0
 11
-202.9108027273289
 21
-690.43757571932497
 31
0.0
  0
TEXT
  5
275
  8
DIMNSIONS
 62
     7
 10
-212.24602324510309
 20
-761.02424154473886
 30
0.0
 40
27.147352430555561
  1
37°
 50
86.374461184883799
 41
0.8
 11
-239.33904408471091
 21
-759.3075686657761
 31
0.0
 73
     3
  0
LINE
  5
276
  8
DIMNSIONS
  6
CONTINUOUS
 62
     7
 10
-76.138564999999659
 20
-849.99999999999272
 30
0.0
 11
145.00000000000011
 21
-849.99999999999272
 31
0.0
  0
LINE
  5
277
  8
DIMNSIONS
  6
CONTINUOUS
 62
     7
 10
124.78035559999999
 20
-740.81144694520435
 30
0.0
 11
145.00000000000011
 21
-740.81144694520435
 31
0.0
  0
LINE
  5
278
  8
DIMNSIONS
  6
CONTINUOUS
 62
     7
 10
125.0000000000001
 20
-849.99999999999272
 30
0.0
 11
125.0000000000001
 21
-740.81144694520435
 31
0.0
  0
LINE
  5
279
  8
DIMNSIONS
  6
CONTINUOUS
 62
     7
 10
125.0000000000001
 20
-849.99999999999272
 30
0.0
 11
118.2996020484976
 21
-824.99377441405488
 31
0.0
  0
LINE
  5
27A
  8
DIMNSIONS
  6
CONTINUOUS
 62
     7
 10
125.0000000000001
 20
-849.99999999999272
 30
0.0
 11
131.70039795150251
 21
-824.99377441405488
 31
0.0
  0
LINE
  5
27B
  8
DIMNSIONS
  6
CONTINUOUS
 62
     7
 10
125.0000000000001
 20
-740.81144694520435
 30
0.0
 11
131.70039795150251
 21
-765.81767253114185
 31
0.0
  0
LINE
  5
27C
  8
DIMNSIONS
  6
CONTINUOUS
 62
     7
 10
125.0000000000001
 20
-740.81144694520435
 30
0.0
 11
118.2996020484977
 21
-765.81767253114185
 31
0.0
  0
TEXT
  5
27D
  8
DIMNSIONS
 62
     7
 10
115.0611111111112
 20
-821.86405680593191
 30
0.0
 40
27.147352430555561
  1
109
 50
90.0
 41
0.8
 11
87.913758680555645
 21
-821.86405680593191
 31
0.0
 73
     3
  0
LINE
  5
27E
  8
DIMNSIONS
  6
CONTINUOUS
 62
     7
 10
-71.00127800000007
 20
-614.73648779999985
 30
0.0
 11
95.307731571338408
 21
-614.73648779999985
 31
0.0
  0
LINE
  5
27F
  8
DIMNSIONS
  6
CONTINUOUS
 62
     7
 10
63.316725951571932
 20
-628.67524495053181
 30
0.0
 11
94.579718322313909
 21
-631.41044905582044
 31
0.0
  0
ARC
  5
280
  8
DIMNSIONS
  6
CONTINUOUS
 62
     7
 10
-96.001278000000426
 20
-614.73648779999985
 30
0.0
 40
171.30900957133881
 50
338.27698275401798
 51
354.99991509028331
  0
LINE
  5
281
  8
DIMNSIONS
  6
CONTINUOUS
 62
     7
 10
74.65582694371713
 20
-629.66730467457239
 30
0.0
 11
78.7056570815447
 21
-655.23692584145795
 31
0.0
  0
LINE
  5
282
  8
DIMNSIONS
  6
CONTINUOUS
 62
     7
 10
74.65582694371713
 20
-629.66730467457239
 30
0.0
 11
65.378272140644938
 21
-653.8361612391534
 31
0.0
  0
ARC
  5
283
  8
DIMNSIONS
  6
CONTINUOUS
 62
     7
 10
-96.001278000000426
 20
-614.73648779999985
 30
0.0
 40
171.30900957133881
 50
0.0
 51
18.8994789075158
  0
LINE
  5
284
  8
DIMNSIONS
  6
CONTINUOUS
 62
     7
 10
75.307731571338394
 20
-614.73648779999985
 30
0.0
 11
68.60733361983597
 21
-589.73026221406235
 31
0.0
  0
LINE
  5
285
  8
DIMNSIONS
  6
CONTINUOUS
 62
     7
 10
75.307731571338394
 20
-614.73648779999985
 30
0.0
 11
82.008129522840804
 21
-589.73026221406235
 31
0.0
  0
TEXT
  5
286
  8
DIMNSIONS
 62
     7
 10
25.000000000000231
 20
-588.66161630453325
 30
0.0
 40
27.147352430555561
  1
5°
 41
0.8
 11
25.000000000000231
 21
-561.51426387397771
 31
0.0
 73
     3
  0
LINE
  5
287
  8
DIMNSIONS
  6
CONTINUOUS
 62
     7
 10
-355.48828939673791
 20
88.492482507832733
 30
0.0
 11
-450.0
 21
25.000000000000028
 31
0.0
  0
LINE
  5
288
  8
DIMNSIONS
  6
CONTINUOUS
 62
     7
 10
-355.48828939673791
 20
88.492482507832733
 30
0.0
 11
-372.81097653654462
 21
69.253689379892734
 31
0.0
  0
LINE
  5
289
  8
DIMNSIONS
  6
CONTINUOUS
 62
     7
 10
-355.48828939673791
 20
88.492482507832733
 30
0.0
 11
-380.10957308559051
 21
80.492542490786548
 31
0.0
  0
LINE
  5
28A
  8
DIMNSIONS
  6
CONTINUOUS
 62
     7
 10
-450.0
 20
25.000000000000028
 30
0.0
 11
-301.8055555555556
 21
25.000000000000028
 31
0.0
  0
TEXT
  5
28B
  8
DIMNSIONS
 62
     7
 10
-390.0
 20
34.938888888888911
 30
0.0
 40
27.147352430555561
  1
4-φ7
 41
0.8
 11
-390.0
 21
62.086241319444461
 31
0.0
 73
     3
  0
TEXT
  5
28C
  8
DATA
 62
     7
 10
599.99999999999989
 20
-944.40476499999988
 30
0.0
 40
24.4326171875
  1
JBL
 41
0.8
 11
599.99999999999989
 21
-919.97214781249988
 31
0.0
 73
     3
  0
TEXT
  5
28D
  8
DATA
 62
     7
 10
-699.99999999999989
 20
-1085.8336650000001
 30
0.0
 40
16.288411458333329
  1
仕様および外観は予告なく変更されることがありますので、ご了承ください。
 41
0.8
 11
-699.99999999999989
 21
-1069.5452535416659
 31
0.0
 73
     3
  0
LINE
  5
28E
  8
DATA
  6
CONTINUOUS
 62
     7
 10
-639.98764360000018
 20
-847.4655626
 30
0.0
 11
-474.59235640000003
 21
-847.4655626
 31
0.0
  0
LINE
  5
28F
  8
DATA
  6
CONTINUOUS
 62
     7
 10
-648.4799999999999
 20
-850.0
 30
0.0
 11
-466.09999999999991
 21
-850.00000000000011
 31
0.0
  0
LINE
  5
290
  8
DATA
  6
CONTINUOUS
 62
     7
 10
-473.5783563999999
 20
-843.96800800000005
 30
0.0
 11
-641.00164360000019
 21
-843.96800800000005
 31
0.0
  0
LINE
  5
291
  8
DATA
  6
CONTINUOUS
 62
     7
 10
-474.59235640000003
 20
-617.26495620000014
 30
0.0
 11
-639.98764360000018
 21
-617.26495620000014
 31
0.0
  0
LINE
  5
292
  8
DATA
  6
CONTINUOUS
 62
     7
 10
-466.09999999999991
 20
-614.73051880000003
 30
0.0
 11
-648.4799999999999
 21
-614.73051880000003
 31
0.0
  0
LINE
  5
293
  8
DATA
  6
CONTINUOUS
 62
     7
 10
-473.5783563999999
 20
-620.7876060000001
 30
0.0
 11
-641.00164360000019
 21
-620.7876060000001
 31
0.0
  0
ARC
  5
294
  8
DATA
  6
CONTINUOUS
 62
     7
 10
-471.40753728562629
 20
-767.50006097979701
 30
0.0
 40
34.773749197655988
 50
218.822000257377
 51
268.09688540728951
  0
ARC
  5
295
  8
DATA
  6
CONTINUOUS
 62
     7
 10
-465.48733089735231
 20
-669.73446143718593
 30
0.0
 40
33.07522638882876
 50
129.1956291684817
 51
148.10110125914909
  0
LINE
  5
296
  8
DATA
  6
CONTINUOUS
 62
     7
 10
-712.5
 20
-50.0
 30
0.0
 11
-287.5
 21
-50.0
 31
0.0
  0
ARC
  5
297
  8
DATA
  6
CONTINUOUS
 62
     7
 10
-557.28999999999985
 20
87.096888888889069
 30
0.0
 40
489.45800000000003
 50
260.0315983943446
 51
279.96840160565552
  0
ARC
  5
298
  8
DATA
  6
CONTINUOUS
 62
     7
 10
-557.28999999999985
 20
89.383269888888947
 30
0.0
 40
489.45800000000003
 50
260.53640516317319
 51
279.46359483682681
  0
LINE
  5
299
  8
DATA
  6
CONTINUOUS
 62
     7
 10
-503.34110614904739
 20
-265.33755351699801
 30
0.0
 11
-464.57999999999993
 21
-359.84689591111061
 31
0.0
  0
LINE
  5
29A
  8
DATA
  6
CONTINUOUS
 62
     7
 10
-642.01764360000016
 20
-619.29495620000012
 30
0.0
 11
-642.01764360000016
 21
-845.4355625999998
 31
0.0
  0
LINE
  5
29B
  8
DATA
  6
CONTINUOUS
 62
     7
 10
-650.0
 20
-616.2505187999999
 30
0.0
 11
-650.0
 21
-848.4799999999999
 31
0.0
  0
LINE
  5
29C
  8
DATA
  6
CONTINUOUS
 62
     7
 10
-641.00164360000019
 20
-620.7876060000001
 30
0.0
 11
-641.00164360000019
 21
-843.96800800000005
 31
0.0
  0
LINE
  5
29D
  8
DATA
  6
CONTINUOUS
 62
     7
 10
-595.38999999999987
 20
-698.66725719999988
 30
0.0
 11
-595.38999999999987
 21
-622.46725719999995
 31
0.0
  0
LINE
  5
29E
  8
DATA
  6
CONTINUOUS
 62
     7
 10
-640.09814019999999
 20
-633.4876059999998
 30
0.0
 11
-640.09814019999999
 21
-831.26800800000012
 31
0.0
  0
ARC
  5
29F
  8
DATA
  6
CONTINUOUS
 62
     7
 10
-637.48468018228527
 20
18.482797995652099
 30
0.0
 40
699.64742806452728
 50
275.88931337317791
 51
277.0700505990024
  0
LINE
  5
2A0
  8
DATA
  6
CONTINUOUS
 62
     7
 10
-569.68519999999978
 20
-676.85744220000015
 30
0.0
 11
-569.68519999999978
 21
-644.27707220000002
 31
0.0
  0
ARC
  5
2A1
  8
DATA
  6
CONTINUOUS
 62
     7
 10
-602.75599999999974
 20
-673.20375720000015
 30
0.0
 40
4.8260000000000209
 50
180.0
 51
0.0
  0
ARC
  5
2A2
  8
DATA
  6
CONTINUOUS
 62
     7
 10
-602.75599999999974
 20
-673.20375720000015
 30
0.0
 40
7.2644000000000224
 50
180.0
 51
0.0
  0
ARC
  5
2A3
  8
DATA
  6
CONTINUOUS
 62
     7
 10
-557.28999999999985
 20
-772.94241980000015
 30
0.0
 40
61.023500000000169
 50
116.359573622293
 51
344.45167800000002
  0
ARC
  5
2A4
  8
DATA
  6
CONTINUOUS
 62
     7
 10
-557.28999999999985
 20
-772.94241980000015
 30
0.0
 40
56.999987600000068
 50
115.6909940344825
 51
347.46332230907882
  0
ARC
  5
2A5
  8
DATA
  6
CONTINUOUS
 62
     7
 10
-557.28999999999985
 20
-772.94241980000015
 30
0.0
 40
50.999999599999981
 50
112.5654650361995
 51
353.44750951038839
  0
CIRCLE
  5
2A6
  8
DATA
  6
CONTINUOUS
 62
     7
 10
-557.28999999999985
 20
-772.94241980000015
 30
0.0
 40
27.999994799999971
  0
ARC
  5
2A7
  8
DATA
  6
CONTINUOUS
 62
     7
 10
-557.28999999999985
 20
-772.94241980000015
 30
0.0
 40
67.2056567999999
 50
253.5816529999999
 51
286.41834499999999
  0
ARC
  5
2A8
  8
DATA
  6
CONTINUOUS
 62
     7
 10
-568.51201843906392
 20
-782.51311023469395
 30
0.0
 40
53.47913780113327
 50
29.305271113119389
 51
82.907909381963833
  0
LINE
  5
2A9
  8
DATA
  6
CONTINUOUS
 62
     7
 10
-621.75525080000034
 20
-791.9380130000003
 30
0.0
 11
-612.32349420000025
 21
-823.94648339999992
 31
0.0
  0
ARC
  5
2AA
  8
DATA
  6
CONTINUOUS
 62
     7
 10
-636.29014020000011
 20
-840.16000799999995
 30
0.0
 40
0.7599999999999909
 50
180.0
 51
270.0
  0
LINE
  5
2AB
  8
DATA
  6
CONTINUOUS
 62
     7
 10
-637.05014019999999
 20
-840.16000799999995
 30
0.0
 11
-637.05014019999999
 21
-832.7880080000001
 31
0.0
  0
LINE
  5
2AC
  8
DATA
  6
CONTINUOUS
 62
     7
 10
-628.9181401999997
 20
-840.92000800000005
 30
0.0
 11
-636.29014020000011
 21
-840.92000800000005
 31
0.0
  0
ARC
  5
2AD
  8
DATA
  6
CONTINUOUS
 62
     7
 10
-628.9181401999997
 20
-842.44000799999992
 30
0.0
 40
1.5199999999999809
 50
0.0
 51
90.0
  0
LINE
  5
2AE
  8
DATA
  6
CONTINUOUS
 62
     7
 10
-627.39814019999994
 20
-843.96800800000005
 30
0.0
 11
-627.39814019999994
 21
-842.44000799999992
 31
0.0
  0
ARC
  5
2AF
  8
DATA
  6
CONTINUOUS
 62
     7
 10
-638.57014019999986
 20
-832.7880080000001
 30
0.0
 40
1.5199999999999809
 50
0.0
 51
90.0
  0
LINE
  5
2B0
  8
DATA
  6
CONTINUOUS
 62
     7
 10
-638.57014019999986
 20
-831.26800800000012
 30
0.0
 11
-640.09814019999999
 21
-831.26800800000012
 31
0.0
  0
ARC
  5
2B1
  8
DATA
  6
CONTINUOUS
 62
     7
 10
-639.98764360000018
 20
-845.4355625999998
 30
0.0
 40
2.0299999999999718
 50
180.0
 51
270.0
  0
ARC
  5
2B2
  8
DATA
  6
CONTINUOUS
 62
     7
 10
-648.4799999999999
 20
-848.4799999999999
 30
0.0
 40
1.5199999999999809
 50
180.0
 51
270.0
  0
LINE
  5
2B3
  8
DATA
  6
CONTINUOUS
 62
     7
 10
-631.53039000000012
 20
-821.27780700000017
 30
0.0
 11
-626.65358999999989
 21
-821.27780700000017
 31
0.0
  0
LINE
  5
2B4
  8
DATA
  6
CONTINUOUS
 62
     7
 10
-629.09198999999978
 20
-823.71620700000005
 30
0.0
 11
-629.09198999999978
 21
-818.83940700000039
 31
0.0
  0
ARC
  5
2B5
  8
DATA
  6
CONTINUOUS
 62
     7
 10
-606.61070400000017
 20
-822.26312380000013
 30
0.0
 40
5.9556649999998701
 50
196.4183450000009
 51
253.5816550000016
  0
CIRCLE
  5
2B6
  8
DATA
  6
CONTINUOUS
 62
     7
 10
-629.09198999999978
 20
-821.27780700000017
 30
0.0
 40
4.7999903999998406
  0
LINE
  5
2B7
  8
DATA
  6
CONTINUOUS
 62
     7
 10
-576.28559319999977
 20
-837.40767059999996
 30
0.0
 11
-608.29406359999984
 21
-827.97593940000002
 31
0.0
  0
TEXT
  5
2B8
  8
DATA
 62
     7
 10
-569.79000000000042
 20
-690.4238781749998
 30
0.0
 40
2.4799346923828121
  1
CONTROL
 41
0.8
 11
-569.79000000000042
 21
-687.94394348261699
 31
0.0
 73
     3
  0
LINE
  5
2B9
  8
DATA
  6
CONTINUOUS
 62
     7
 10
-570.78999999999985
 20
-691.23051879999957
 30
0.0
 11
-543.79000000000042
 21
-691.23051879999957
 31
0.0
  0
LINE
  5
2BA
  8
DATA
  6
CONTINUOUS
 62
     7
 10
-543.79000000000042
 20
-713.73051880000003
 30
0.0
 11
-570.78999999999985
 21
-713.73051880000003
 31
0.0
  0
LINE
  5
2BB
  8
DATA
  6
CONTINUOUS
 62
     7
 10
-570.78999999999985
 20
-686.73051880000003
 30
0.0
 11
-543.79000000000042
 21
-686.73051880000003
 31
0.0
  0
LINE
  5
2BC
  8
DATA
  6
CONTINUOUS
 62
     7
 10
-570.78999999999985
 20
-713.73051880000003
 30
0.0
 11
-570.78999999999985
 21
-686.73051880000003
 31
0.0
  0
ARC
  5
2BD
  8
DATA
  6
CONTINUOUS
 62
     7
 10
-620.41615120112829
 20
-642.34250208626122
 30
0.0
 40
61.634294695115827
 50
293.95648030189881
 51
310.14988383627423
  0
ARC
  5
2BE
  8
DATA
  6
CONTINUOUS
 62
     7
 10
-599.54843436798421
 20
-692.38861690879503
 30
0.0
 40
19.093709729417849
 50
322.87920856338781
 51
7.7830917055525219
  0
LINE
  5
2BF
  8
DATA
  6
CONTINUOUS
 62
     7
 10
-608.29406359999984
 20
-717.90892559999998
 30
0.0
 11
-586.71047227433053
 21
-711.54903169024635
 31
0.0
  0
LINE
  5
2C0
  8
DATA
  6
CONTINUOUS
 62
     7
 10
-595.38999999999987
 20
-698.66725719999988
 30
0.0
 11
-581.51656182726038
 21
-698.66725719999988
 31
0.0
  0
ARC
  5
2C1
  8
DATA
  6
CONTINUOUS
 62
     7
 10
-555.97341778668397
 20
-650.72197065383955
 30
0.0
 40
78.944644020083786
 50
258.93436274173439
 51
265.6878763714613
  0
ARC
  5
2C2
  8
DATA
  6
CONTINUOUS
 62
     7
 10
-566.01003639076123
 20
-707.55668514890567
 30
0.0
 40
21.26659769253272
 50
201.7279557646394
 51
256.08150683439408
  0
ARC
  5
2C3
  8
DATA
  6
CONTINUOUS
 62
     7
 10
-575.47435922242448
 20
-710.86869391718551
 30
0.0
 40
11.25669116573215
 50
141.8269325463626
 51
203.90185482807129
  0
ARC
  5
2C4
  8
DATA
  6
CONTINUOUS
 62
     7
 10
-596.91639439649316
 20
-715.55920976926893
 30
0.0
 40
8.2268934884488782
 50
10.17122821838343
 51
23.133290805873312
  0
ARC
  5
2C5
  8
DATA
  6
CONTINUOUS
 62
     7
 10
-593.14460387890233
 20
-714.96748160772756
 30
0.0
 40
4.4106783045105793
 50
326.89804736421632
 51
11.257713267956429
  0
ARC
  5
2C6
  8
DATA
  6
CONTINUOUS
 62
     7
 10
-599.53360401794237
 20
-709.86104457203999
 30
0.0
 40
12.57626418678803
 50
298.70562960638
 51
323.30368599721442
  0
ARC
  5
2C7
  8
DATA
  6
CONTINUOUS
 62
     7
 10
-569.50287673571029
 20
-749.64772255254593
 30
0.0
 40
37.44918320722217
 50
129.83713065213851
 51
146.78898546334349
  0
ARC
  5
2C8
  8
DATA
  6
CONTINUOUS
 62
     7
 10
-614.72491606043468
 20
-718.58045768374632
 30
0.0
 40
17.445490568528601
 50
295.47154470467723
 51
322.7673470296906
  0
ARC
  5
2C9
  8
DATA
  6
CONTINUOUS
 62
     7
 10
-588.11624519342479
 20
-773.922130971564
 30
0.0
 40
43.960874783258987
 50
115.76073894775379
 51
118.5483437467971
  0
ARC
  5
2CA
  8
DATA
  6
CONTINUOUS
 62
     7
 10
-606.17196767745838
 20
-741.3436864866469
 30
0.0
 40
6.7209848660269298
 50
116.06544534991311
 51
147.68419225289421
  0
ARC
  5
2CB
  8
DATA
  6
CONTINUOUS
 62
     7
 10
-584.55062876647389
 20
-751.42124765542974
 30
0.0
 40
30.532700406115168
 50
153.40166135632231
 51
162.0670332324712
  0
ARC
  5
2CC
  8
DATA
  6
CONTINUOUS
 62
     7
 10
-617.11311736940252
 20
-741.06704905786012
 30
0.0
 40
3.6401250131793921
 50
289.85381636385142
 51
344.82195700858011
  0
ARC
  5
2CD
  8
DATA
  6
CONTINUOUS
 62
     7
 10
-616.98197094851093
 20
-739.00842354474867
 30
0.0
 40
5.5926631136952514
 50
249.92876554684599
 51
281.39673336954638
  0
LINE
  5
2CE
  8
DATA
  6
CONTINUOUS
 62
     7
 10
-606.99622520000003
 20
-725.26819460000002
 30
0.0
 11
-602.93222520000006
 21
-725.26819460000002
 31
0.0
  0
LINE
  5
2CF
  8
DATA
  6
CONTINUOUS
 62
     7
 10
-604.96422519999987
 20
-727.30019459999983
 30
0.0
 11
-604.96422519999987
 21
-723.23619460000009
 31
0.0
  0
LINE
  5
2D0
  8
DATA
  6
CONTINUOUS
 62
     7
 10
-631.53039000000012
 20
-732.3778070000003
 30
0.0
 11
-626.65358999999989
 21
-732.3778070000003
 31
0.0
  0
LINE
  5
2D1
  8
DATA
  6
CONTINUOUS
 62
     7
 10
-629.09198999999978
 20
-734.8162070000003
 30
0.0
 11
-629.09198999999978
 21
-729.9394070000003
 31
0.0
  0
ARC
  5
2D2
  8
DATA
  6
CONTINUOUS
 62
     7
 10
-606.61070400000017
 20
-723.6217412000002
 30
0.0
 40
5.955664999999807
 50
106.41834499999869
 51
163.5816549999989
  0
CIRCLE
  5
2D3
  8
DATA
  6
CONTINUOUS
 62
     7
 10
-629.09198999999978
 20
-732.37780699999985
 30
0.0
 40
4.7999903999998406
  0
LINE
  5
2D4
  8
DATA
  6
CONTINUOUS
 62
     7
 10
-621.75525080000034
 20
-753.94685200000004
 30
0.0
 11
-618.90130679999982
 21
-744.26142559999982
 31
0.0
  0
ARC
  5
2D5
  8
DATA
  6
CONTINUOUS
 62
     7
 10
-557.28999999999985
 20
-772.94241980000015
 30
0.0
 40
67.205656800000014
 50
163.58165500000001
 51
196.4183469999999
  0
LINE
  5
2D6
  8
DATA
  6
CONTINUOUS
 62
     7
 10
-618.90130679999982
 20
-744.26142559999982
 30
0.0
 11
-612.32349420000025
 21
-721.9383816000003
 31
0.0
  0
CIRCLE
  5
2D7
  8
DATA
  6
CONTINUOUS
 62
     7
 10
-604.96422519999987
 20
-725.26819460000002
 30
0.0
 40
3.9999920000000202
  0
ARC
  5
2D8
  8
DATA
  6
CONTINUOUS
 62
     7
 10
-620.41615120112829
 20
-642.34250208626122
 30
0.0
 40
61.634294695115798
 50
324.29955536310968
 51
325.60264391160399
  0
LINE
  5
2D9
  8
DATA
  6
CONTINUOUS
 62
     7
 10
-569.25520000000006
 20
-677.28744219999999
 30
0.0
 11
-563.92996275782252
 21
-677.28744219999999
 31
0.0
  0
ARC
  5
2DA
  8
DATA
  6
CONTINUOUS
 62
     7
 10
-571.68434397858925
 20
-688.48912054497055
 30
0.0
 40
9.0422238595144453
 50
116.2890981437431
 51
188.35420441684079
  0
ARC
  5
2DB
  8
DATA
  6
CONTINUOUS
 62
     7
 10
-563.2791246421865
 20
-704.38312673551161
 30
0.0
 40
27.019561588094181
 50
95.131813018733197
 51
117.3418064429648
  0
ARC
  5
2DC
  8
DATA
  6
CONTINUOUS
 62
     7
 10
-569.25520000000006
 20
-676.85744220000015
 30
0.0
 40
0.4300000000002911
 50
180.0
 51
270.0
  0
LINE
  5
2DD
  8
DATA
  6
CONTINUOUS
 62
     7
 10
-543.79000000000042
 20
-686.73051880000003
 30
0.0
 11
-543.79000000000042
 21
-713.73051880000003
 31
0.0
  0
TEXT
  5
2DE
  8
DATA
 62
     7
 10
-547.86722567974402
 20
-690.4238781749998
 30
0.0
 40
2.4799346923828121
  1
25
 41
0.8
 11
-547.86722567974402
 21
-687.94394348261699
 31
0.0
 73
     3
  0
LINE
  5
2DF
  8
DATA
  6
CONTINUOUS
 62
     7
 10
-502.25650580000001
 20
-823.94648339999992
 30
0.0
 11
-493.52950976976848
 21
-794.32974541089573
 31
0.0
  0
LINE
  5
2E0
  8
DATA
  6
CONTINUOUS
 62
     7
 10
-538.29440680000005
 20
-837.40767059999996
 30
0.0
 11
-506.28593640000008
 21
-827.97593940000002
 31
0.0
  0
ARC
  5
2E1
  8
DATA
  6
CONTINUOUS
 62
     7
 10
-507.9692960000001
 20
-822.26312380000013
 30
0.0
 40
5.9556649999999349
 50
286.41834500000289
 51
343.5816549999995
  0
ARC
  5
2E2
  8
DATA
  6
CONTINUOUS
 62
     7
 10
-233.16914525112909
 20
-576.35603281279919
 30
0.0
 40
340.21368080080822
 50
211.93950101276459
 51
218.74915090130281
  0
LINE
  5
2E3
  8
DATA
  6
CONTINUOUS
 62
     7
 10
-650.0
 20
-359.84689591111078
 30
0.0
 11
-611.23889385095254
 21
-265.33755351699767
 31
0.0
  0
ARC
  5
2E4
  8
DATA
  6
CONTINUOUS
 62
     7
 10
-494.1638487988717
 20
-678.79201231373884
 30
0.0
 40
61.634294695115827
 50
113.95648030189891
 51
145.60264391160399
  0
LINE
  5
2E5
  8
DATA
  6
CONTINUOUS
 62
     7
 10
-637.05014019999999
 20
-624.59560600000009
 30
0.0
 11
-637.05014019999999
 21
-631.96760599999982
 31
0.0
  0
ARC
  5
2E6
  8
DATA
  6
CONTINUOUS
 62
     7
 10
-620.41615120112829
 20
-678.79201231373884
 30
0.0
 40
61.634294695115798
 50
34.397356088396023
 51
66.043519698101122
  0
LINE
  5
2E7
  8
DATA
  6
CONTINUOUS
 62
     7
 10
-519.19000000000005
 20
-622.46725719999995
 30
0.0
 11
-519.19000000000005
 21
-660.88291400859737
 31
0.0
  0
ARC
  5
2E8
  8
DATA
  6
CONTINUOUS
 62
     7
 10
-559.22592729152484
 20
-642.6518385182876
 30
0.0
 40
34.10990821263735
 50
283.31519453450682
 51
316.21095781789847
  0
LINE
  5
2E9
  8
DATA
  6
CONTINUOUS
 62
     7
 10
-545.32479999999975
 20
-643.84707220000007
 30
0.0
 11
-569.25520000000006
 21
-643.84707220000007
 31
0.0
  0
ARC
  5
2EA
  8
DATA
  6
CONTINUOUS
 62
     7
 10
-557.28999999999985
 20
-660.56725719999974
 30
0.0
 40
8.8900000000001018
 50
278.2132210000006
 51
81.786778999999413
  0
ARC
  5
2EB
  8
DATA
  6
CONTINUOUS
 62
     7
 10
-638.57014019999986
 20
-631.96760599999982
 30
0.0
 40
1.5199999999999809
 50
270.0
 51
0.0
  0
LINE
  5
2EC
  8
DATA
  6
CONTINUOUS
 62
     7
 10
-638.57014019999986
 20
-633.4876059999998
 30
0.0
 11
-640.09814019999999
 21
-633.4876059999998
 31
0.0
  0
ARC
  5
2ED
  8
DATA
  6
CONTINUOUS
 62
     7
 10
-569.25520000000006
 20
-644.27707220000002
 30
0.0
 40
0.4299999999998363
 50
90.0
 51
180.0
  0
POLYLINE
  5
2EE
  8
DATA
  6
CONTINUOUS
 62
     7
 66
     1
 10
0.0
 20
0.0
 30
0.0
 70
   128
  0
VERTEX
  5
678
  8
DATA
  6
CONTINUOUS
 62
     7
 10
-558.55997882318525
 20
-672.3386332
 30
0.0
  0
VERTEX
  5
679
  8
DATA
  6
CONTINUOUS
 62
     7
 10
-558.55997882318525
 20
-672.43892608194096
 30
0.0
  0
VERTEX
  5
67A
  8
DATA
  6
CONTINUOUS
 62
     7
 10
-558.55718904110495
 20
-672.56622444471145
 30
0.0
  0
VERTEX
  5
67B
  8
DATA
  6
CONTINUOUS
 62
     7
 10
-558.55334811722832
 20
-672.69077510772956
 30
0.0
  0
VERTEX
  5
67C
  8
DATA
  6
CONTINUOUS
 62
     7
 10
-558.54845605155515
 20
-672.8125780709961
 30
0.0
  0
VERTEX
  5
67D
  8
DATA
  6
CONTINUOUS
 62
     7
 10
-558.54251284408519
 20
-672.93163333451025
 30
0.0
  0
VERTEX
  5
67E
  8
DATA
  6
CONTINUOUS
 62
     7
 10
-558.53551849481892
 20
-673.04794089827215
 30
0.0
  0
VERTEX
  5
67F
  8
DATA
  6
CONTINUOUS
 62
     7
 10
-558.52747300375597
 20
-673.161500762282
 30
0.0
  0
VERTEX
  5
680
  8
DATA
  6
CONTINUOUS
 62
     7
 10
-558.51837637089648
 20
-673.27231292653983
 30
0.0
  0
VERTEX
  5
681
  8
DATA
  6
CONTINUOUS
 62
     7
 10
-558.50822859624043
 20
-673.38037739104539
 30
0.0
  0
VERTEX
  5
682
  8
DATA
  6
CONTINUOUS
 62
     7
 10
-558.49695395061724
 20
-673.48668295927598
 30
0.0
  0
VERTEX
  5
683
  8
DATA
  6
CONTINUOUS
 62
     7
 10
-558.48447670485598
 20
-673.59221843470903
 30
0.0
  0
VERTEX
  5
684
  8
DATA
  6
CONTINUOUS
 62
     7
 10
-558.47079685895665
 20
-673.69698381734395
 30
0.0
  0
VERTEX
  5
685
  8
DATA
  6
CONTINUOUS
 62
     7
 10
-558.45591441291936
 20
-673.80097910718121
 30
0.0
  0
VERTEX
  5
686
  8
DATA
  6
CONTINUOUS
 62
     7
 10
-558.43982936674399
 20
-673.90420430422057
 30
0.0
  0
VERTEX
  5
687
  8
DATA
  6
CONTINUOUS
 62
     7
 10
-558.4225417204309
 20
-674.00665940846216
 30
0.0
  0
VERTEX
  5
688
  8
DATA
  6
CONTINUOUS
 62
     7
 10
-558.40405147397962
 20
-674.10834441990585
 30
0.0
  0
VERTEX
  5
689
  8
DATA
  6
CONTINUOUS
 62
     7
 10
-558.38435862739027
 20
-674.20925933855176
 30
0.0
  0
VERTEX
  5
68A
  8
DATA
  6
CONTINUOUS
 62
     7
 10
-558.36352979532512
 20
-674.30873996257105
 30
0.0
  0
VERTEX
  5
68B
  8
DATA
  6
CONTINUOUS
 62
     7
 10
-558.34163159244633
 20
-674.40612209013489
 30
0.0
  0
VERTEX
  5
68C
  8
DATA
  6
CONTINUOUS
 62
     7
 10
-558.31866401875368
 20
-674.50140572124349
 30
0.0
  0
VERTEX
  5
68D
  8
DATA
  6
CONTINUOUS
 62
     7
 10
-558.29462707424705
 20
-674.59459085589651
 30
0.0
  0
VERTEX
  5
68E
  8
DATA
  6
CONTINUOUS
 62
     7
 10
-558.26952075892677
 20
-674.68567749409408
 30
0.0
  0
VERTEX
  5
68F
  8
DATA
  6
CONTINUOUS
 62
     7
 10
-558.24334507279286
 20
-674.7746656358363
 30
0.0
  0
VERTEX
  5
690
  8
DATA
  6
CONTINUOUS
 62
     7
 10
-558.2161000158452
 20
-674.86155528112329
 30
0.0
  0
VERTEX
  5
691
  8
DATA
  6
CONTINUOUS
 62
     7
 10
-558.18778558808356
 20
-674.94634642995447
 30
0.0
  0
VERTEX
  5
692
  8
DATA
  6
CONTINUOUS
 62
     7
 10
-558.15857431600125
 20
-675.02853037327452
 30
0.0
  0
VERTEX
  5
693
  8
DATA
  6
CONTINUOUS
 62
     7
 10
-558.1286387260908
 20
-675.10759840202775
 30
0.0
  0
VERTEX
  5
694
  8
DATA
  6
CONTINUOUS
 62
     7
 10
-558.09797881835266
 20
-675.18355051621415
 30
0.0
  0
VERTEX
  5
695
  8
DATA
  6
CONTINUOUS
 62
     7
 10
-558.06659459278637
 20
-675.25638671583329
 30
0.0
  0
VERTEX
  5
696
  8
DATA
  6
CONTINUOUS
 62
     7
 10
-558.0344860493924
 20
-675.32610700088537
 30
0.0
  0
VERTEX
  5
697
  8
DATA
  6
CONTINUOUS
 62
     7
 10
-558.00165318817017
 20
-675.39271137137052
 30
0.0
  0
VERTEX
  5
698
  8
DATA
  6
CONTINUOUS
 62
     7
 10
-557.96809600912025
 20
-675.45619982728886
 30
0.0
  0
VERTEX
  5
699
  8
DATA
  6
CONTINUOUS
 62
     7
 10
-557.93381451224207
 20
-675.51657236864003
 30
0.0
  0
VERTEX
  5
69A
  8
DATA
  6
CONTINUOUS
 62
     7
 10
-557.89903728288652
 20
-675.57364421135514
 30
0.0
  0
VERTEX
  5
69B
  8
DATA
  6
CONTINUOUS
 62
     7
 10
-557.8639929064035
 20
-675.62723057136554
 30
0.0
  0
VERTEX
  5
69C
  8
DATA
  6
CONTINUOUS
 62
     7
 10
-557.82868138279298
 20
-675.67733144867066
 30
0.0
  0
VERTEX
  5
69D
  8
DATA
  6
CONTINUOUS
 62
     7
 10
-557.79310271205532
 20
-675.72394684327071
 30
0.0
  0
VERTEX
  5
69E
  8
DATA
  6
CONTINUOUS
 62
     7
 10
-557.75725689419005
 20
-675.76707675516582
 30
0.0
  0
VERTEX
  5
69F
  8
DATA
  6
CONTINUOUS
 62
     7
 10
-557.72114392919775
 20
-675.80672118435587
 30
0.0
  0
VERTEX
  5
6A0
  8
DATA
  6
CONTINUOUS
 62
     7
 10
-557.68476381707796
 20
-675.84288013084097
 30
0.0
  0
VERTEX
  5
6A1
  8
DATA
  6
CONTINUOUS
 62
     7
 10
-557.64811655783058
 20
-675.87555359462112
 30
0.0
  0
VERTEX
  5
6A2
  8
DATA
  6
CONTINUOUS
 62
     7
 10
-557.61090219287428
 20
-675.9050265577456
 30
0.0
  0
VERTEX
  5
6A3
  8
DATA
  6
CONTINUOUS
 62
     7
 10
-557.57282076362685
 20
-675.93158400226434
 30
0.0
  0
VERTEX
  5
6A4
  8
DATA
  6
CONTINUOUS
 62
     7
 10
-557.53387227008864
 20
-675.95522592817724
 30
0.0
  0
VERTEX
  5
6A5
  8
DATA
  6
CONTINUOUS
 62
     7
 10
-557.49405671225941
 20
-675.97595233548407
 30
0.0
  0
VERTEX
  5
6A6
  8
DATA
  6
CONTINUOUS
 62
     7
 10
-557.45337409013928
 20
-675.99376322418516
 30
0.0
  0
VERTEX
  5
6A7
  8
DATA
  6
CONTINUOUS
 62
     7
 10
-557.41182440372802
 20
-676.00865859428006
 30
0.0
  0
VERTEX
  5
6A8
  8
DATA
  6
CONTINUOUS
 62
     7
 10
-557.36940765302597
 20
-676.02063844576935
 30
0.0
  0
VERTEX
  5
6A9
  8
DATA
  6
CONTINUOUS
 62
     7
 10
-557.32612383803291
 20
-676.02970277865268
 30
0.0
  0
VERTEX
  5
6AA
  8
DATA
  6
CONTINUOUS
 62
     7
 10
-557.28227059734911
 20
-676.03442495169338
 30
0.0
  0
VERTEX
  5
6AB
  8
DATA
  6
CONTINUOUS
 62
     7
 10
-557.23814556957461
 20
-676.03337832365457
 30
0.0
  0
VERTEX
  5
6AC
  8
DATA
  6
CONTINUOUS
 62
     7
 10
-557.19374875470942
 20
-676.02656289453671
 30
0.0
  0
VERTEX
  5
6AD
  8
DATA
  6
CONTINUOUS
 62
     7
 10
-557.14908015275364
 20
-676.01397866433945
 30
0.0
  0
VERTEX
  5
6AE
  8
DATA
  6
CONTINUOUS
 62
     7
 10
-557.10413976370705
 20
-675.99562563306313
 30
0.0
  0
VERTEX
  5
6AF
  8
DATA
  6
CONTINUOUS
 62
     7
 10
-557.05892758757
 20
-675.97150380070718
 30
0.0
  0
VERTEX
  5
6B0
  8
DATA
  6
CONTINUOUS
 62
     7
 10
-557.01344362434224
 20
-675.94161316727195
 30
0.0
  0
VERTEX
  5
6B1
  8
DATA
  6
CONTINUOUS
 62
     7
 10
-556.9676878740238
 20
-675.90595373275755
 30
0.0
  0
VERTEX
  5
6B2
  8
DATA
  6
CONTINUOUS
 62
     7
 10
-556.92250036857399
 20
-675.86613411584813
 30
0.0
  0
VERTEX
  5
6B3
  8
DATA
  6
CONTINUOUS
 62
     7
 10
-556.87872113995195
 20
-675.8237629352285
 30
0.0
  0
VERTEX
  5
6B4
  8
DATA
  6
CONTINUOUS
 62
     7
 10
-556.83635018815801
 20
-675.77884019089834
 30
0.0
  0
VERTEX
  5
6B5
  8
DATA
  6
CONTINUOUS
 62
     7
 10
-556.79538751319183
 20
-675.73136588285752
 30
0.0
  0
VERTEX
  5
6B6
  8
DATA
  6
CONTINUOUS
 62
     7
 10
-556.75583311505352
 20
-675.68134001110627
 30
0.0
  0
VERTEX
  5
6B7
  8
DATA
  6
CONTINUOUS
 62
     7
 10
-556.71768699374309
 20
-675.62876257564471
 30
0.0
  0
VERTEX
  5
6B8
  8
DATA
  6
CONTINUOUS
 62
     7
 10
-556.68094914926064
 20
-675.5736335764725
 30
0.0
  0
VERTEX
  5
6B9
  8
DATA
  6
CONTINUOUS
 62
     7
 10
-556.64561958160596
 20
-675.51595301358986
 30
0.0
  0
VERTEX
  5
6BA
  8
DATA
  6
CONTINUOUS
 62
     7
 10
-556.61135691871095
 20
-675.45544820786847
 30
0.0
  0
VERTEX
  5
6BB
  8
DATA
  6
CONTINUOUS
 62
     7
 10
-556.57781978850687
 20
-675.39184648017988
 30
0.0
  0
VERTEX
  5
6BC
  8
DATA
  6
CONTINUOUS
 62
     7
 10
-556.54500819099349
 20
-675.3251478305242
 30
0.0
  0
VERTEX
  5
6BD
  8
DATA
  6
CONTINUOUS
 62
     7
 10
-556.51292212617182
 20
-675.2553522589011
 30
0.0
  0
VERTEX
  5
6BE
  8
DATA
  6
CONTINUOUS
 62
     7
 10
-556.48156159404084
 20
-675.18245976531102
 30
0.0
  0
VERTEX
  5
6BF
  8
DATA
  6
CONTINUOUS
 62
     7
 10
-556.4509265946009
 20
-675.10647034975364
 30
0.0
  0
VERTEX
  5
6C0
  8
DATA
  6
CONTINUOUS
 62
     7
 10
-556.42101712785211
 20
-675.02738401222905
 30
0.0
  0
VERTEX
  5
6C1
  8
DATA
  6
CONTINUOUS
 62
     7
 10
-556.39183319379435
 20
-674.94520075273738
 30
0.0
  0
VERTEX
  5
6C2
  8
DATA
  6
CONTINUOUS
 62
     7
 10
-556.36354678757834
 20
-674.86041977155855
 30
0.0
  0
VERTEX
  5
6C3
  8
DATA
  6
CONTINUOUS
 62
     7
 10
-556.33632990435467
 20
-674.77354026897251
 30
0.0
  0
VERTEX
  5
6C4
  8
DATA
  6
CONTINUOUS
 62
     7
 10
-556.31018254412345
 20
-674.68456224497959
 30
0.0
  0
VERTEX
  5
6C5
  8
DATA
  6
CONTINUOUS
 62
     7
 10
-556.28510470688445
 20
-674.59348569957945
 30
0.0
  0
VERTEX
  5
6C6
  8
DATA
  6
CONTINUOUS
 62
     7
 10
-556.26109639263825
 20
-674.5003106327722
 30
0.0
  0
VERTEX
  5
6C7
  8
DATA
  6
CONTINUOUS
 62
     7
 10
-556.23815760138427
 20
-674.40503704455796
 30
0.0
  0
VERTEX
  5
6C8
  8
DATA
  6
CONTINUOUS
 62
     7
 10
-556.21628833312275
 20
-674.30766493493661
 30
0.0
  0
VERTEX
  5
6C9
  8
DATA
  6
CONTINUOUS
 62
     7
 10
-556.19548858785367
 20
-674.20819430390816
 30
0.0
  0
VERTEX
  5
6CA
  8
DATA
  6
CONTINUOUS
 62
     7
 10
-556.17582493433565
 20
-674.10729133698078
 30
0.0
  0
VERTEX
  5
6CB
  8
DATA
  6
CONTINUOUS
 62
     7
 10
-556.1573639413275
 20
-674.00562221966197
 30
0.0
  0
VERTEX
  5
6CC
  8
DATA
  6
CONTINUOUS
 62
     7
 10
-556.14010560882912
 20
-673.90318695195219
 30
0.0
  0
VERTEX
  5
6CD
  8
DATA
  6
CONTINUOUS
 62
     7
 10
-556.12404993684038
 20
-673.79998553385155
 30
0.0
  0
VERTEX
  5
6CE
  8
DATA
  6
CONTINUOUS
 62
     7
 10
-556.1091969253614
 20
-673.69601796536006
 30
0.0
  0
VERTEX
  5
6CF
  8
DATA
  6
CONTINUOUS
 62
     7
 10
-556.09554657439196
 20
-673.59128424647713
 30
0.0
  0
VERTEX
  5
6D0
  8
DATA
  6
CONTINUOUS
 62
     7
 10
-556.08309888393262
 20
-673.48578437720323
 30
0.0
  0
VERTEX
  5
6D1
  8
DATA
  6
CONTINUOUS
 62
     7
 10
-556.07185385398282
 20
-673.37951835753825
 30
0.0
  0
VERTEX
  5
6D2
  8
DATA
  6
CONTINUOUS
 62
     7
 10
-556.06173040028136
 20
-673.27150364522925
 30
0.0
  0
VERTEX
  5
6D3
  8
DATA
  6
CONTINUOUS
 62
     7
 10
-556.05264743856674
 20
-673.16075769802285
 30
0.0
  0
VERTEX
  5
6D4
  8
DATA
  6
CONTINUOUS
 62
     7
 10
-556.04460496883871
 20
-673.04728051591928
 30
0.0
  0
VERTEX
  5
6D5
  8
DATA
  6
CONTINUOUS
 62
     7
 10
-556.03760299109729
 20
-672.93107209891821
 30
0.0
  0
VERTEX
  5
6D6
  8
DATA
  6
CONTINUOUS
 62
     7
 10
-556.03164150534292
 20
-672.81213244701962
 30
0.0
  0
VERTEX
  5
6D7
  8
DATA
  6
CONTINUOUS
 62
     7
 10
-556.02672051157515
 20
-672.69046156022421
 30
0.0
  0
VERTEX
  5
6D8
  8
DATA
  6
CONTINUOUS
 62
     7
 10
-556.02284000979409
 20
-672.56605943853117
 30
0.0
  0
VERTEX
  5
6D9
  8
DATA
  6
CONTINUOUS
 62
     7
 10
-556.01999999999998
 20
-672.43892608194096
 30
0.0
  0
VERTEX
  5
6DA
  8
DATA
  6
CONTINUOUS
 62
     7
 10
-556.01999999999998
 20
-672.43892608194096
 30
0.0
  0
VERTEX
  5
6DB
  8
DATA
  6
CONTINUOUS
 62
     7
 10
-556.01999999999998
 20
-672.3386332
 30
0.0
  0
SEQEND
  5
6DC
  8
DATA
  6
CONTINUOUS
 62
     7
  0
POLYLINE
  5
354
  8
DATA
  6
CONTINUOUS
 62
     7
 66
     1
 10
0.0
 20
0.0
 30
0.0
 70
   128
  0
VERTEX
  5
6DD
  8
DATA
  6
CONTINUOUS
 62
     7
 10
-556.01999999999998
 20
-648.79588120000005
 30
0.0
  0
VERTEX
  5
6DE
  8
DATA
  6
CONTINUOUS
 62
     7
 10
-556.01999999999998
 20
-648.69558831805898
 30
0.0
  0
VERTEX
  5
6DF
  8
DATA
  6
CONTINUOUS
 62
     7
 10
-556.02278978208005
 20
-648.56828995528849
 30
0.0
  0
VERTEX
  5
6E0
  8
DATA
  6
CONTINUOUS
 62
     7
 10
-556.0266307059569
 20
-648.44373929227015
 30
0.0
  0
VERTEX
  5
6E1
  8
DATA
  6
CONTINUOUS
 62
     7
 10
-556.03152277163008
 20
-648.32193632900385
 30
0.0
  0
VERTEX
  5
6E2
  8
DATA
  6
CONTINUOUS
 62
     7
 10
-556.03746597910003
 20
-648.20288106548958
 30
0.0
  0
VERTEX
  5
6E3
  8
DATA
  6
CONTINUOUS
 62
     7
 10
-556.04446032836631
 20
-648.08657350172768
 30
0.0
  0
VERTEX
  5
6E4
  8
DATA
  6
CONTINUOUS
 62
     7
 10
-556.05250581942926
 20
-647.97301363771794
 30
0.0
  0
VERTEX
  5
6E5
  8
DATA
  6
CONTINUOUS
 62
     7
 10
-556.06160245228887
 20
-647.86220147346012
 30
0.0
  0
VERTEX
  5
6E6
  8
DATA
  6
CONTINUOUS
 62
     7
 10
-556.07175022694457
 20
-647.75413700895444
 30
0.0
  0
VERTEX
  5
6E7
  8
DATA
  6
CONTINUOUS
 62
     7
 10
-556.08302487256799
 20
-647.64783144072362
 30
0.0
  0
VERTEX
  5
6E8
  8
DATA
  6
CONTINUOUS
 62
     7
 10
-556.09550211832925
 20
-647.54229596529092
 30
0.0
  0
VERTEX
  5
6E9
  8
DATA
  6
CONTINUOUS
 62
     7
 10
-556.10918196422847
 20
-647.43753058265588
 30
0.0
  0
VERTEX
  5
6EA
  8
DATA
  6
CONTINUOUS
 62
     7
 10
-556.12406441026576
 20
-647.33353529281874
 30
0.0
  0
VERTEX
  5
6EB
  8
DATA
  6
CONTINUOUS
 62
     7
 10
-556.14014945644112
 20
-647.23031009577915
 30
0.0
  0
VERTEX
  5
6EC
  8
DATA
  6
CONTINUOUS
 62
     7
 10
-556.15743710275433
 20
-647.12785499153767
 30
0.0
  0
VERTEX
  5
6ED
  8
DATA
  6
CONTINUOUS
 62
     7
 10
-556.17592734920561
 20
-647.02616998009421
 30
0.0
  0
VERTEX
  5
6EE
  8
DATA
  6
CONTINUOUS
 62
     7
 10
-556.19562019579519
 20
-646.92525506144818
 30
0.0
  0
VERTEX
  5
6EF
  8
DATA
  6
CONTINUOUS
 62
     7
 10
-556.21644902786022
 20
-646.825774437429
 30
0.0
  0
VERTEX
  5
6F0
  8
DATA
  6
CONTINUOUS
 62
     7
 10
-556.23834723073924
 20
-646.72839230986517
 30
0.0
  0
VERTEX
  5
6F1
  8
DATA
  6
CONTINUOUS
 62
     7
 10
-556.26131480443189
 20
-646.63310867875657
 30
0.0
  0
VERTEX
  5
6F2
  8
DATA
  6
CONTINUOUS
 62
     7
 10
-556.28535174893841
 20
-646.53992354410366
 30
0.0
  0
VERTEX
  5
6F3
  8
DATA
  6
CONTINUOUS
 62
     7
 10
-556.31045806425846
 20
-646.44883690590598
 30
0.0
  0
VERTEX
  5
6F4
  8
DATA
  6
CONTINUOUS
 62
     7
 10
-556.33663375039237
 20
-646.35984876416387
 30
0.0
  0
VERTEX
  5
6F5
  8
DATA
  6
CONTINUOUS
 62
     7
 10
-556.36387880734026
 20
-646.272959118877
 30
0.0
  0
VERTEX
  5
6F6
  8
DATA
  6
CONTINUOUS
 62
     7
 10
-556.39219323510179
 20
-646.18816797004547
 30
0.0
  0
VERTEX
  5
6F7
  8
DATA
  6
CONTINUOUS
 62
     7
 10
-556.42140450718409
 20
-646.10598402672542
 30
0.0
  0
VERTEX
  5
6F8
  8
DATA
  6
CONTINUOUS
 62
     7
 10
-556.45134009709432
 20
-646.02691599797231
 30
0.0
  0
VERTEX
  5
6F9
  8
DATA
  6
CONTINUOUS
 62
     7
 10
-556.48200000483246
 20
-645.95096388378602
 30
0.0
  0
VERTEX
  5
6FA
  8
DATA
  6
CONTINUOUS
 62
     7
 10
-556.51338423039886
 20
-645.87812768416666
 30
0.0
  0
VERTEX
  5
6FB
  8
DATA
  6
CONTINUOUS
 62
     7
 10
-556.54549277379294
 20
-645.80840739911457
 30
0.0
  0
VERTEX
  5
6FC
  8
DATA
  6
CONTINUOUS
 62
     7
 10
-556.57832563501506
 20
-645.74180302862919
 30
0.0
  0
VERTEX
  5
6FD
  8
DATA
  6
CONTINUOUS
 62
     7
 10
-556.61188281406521
 20
-645.67831457271109
 30
0.0
  0
VERTEX
  5
6FE
  8
DATA
  6
CONTINUOUS
 62
     7
 10
-556.64616431094316
 20
-645.61794203136003
 30
0.0
  0
VERTEX
  5
6FF
  8
DATA
  6
CONTINUOUS
 62
     7
 10
-556.68094154029916
 20
-645.56087018864491
 30
0.0
  0
VERTEX
  5
700
  8
DATA
  6
CONTINUOUS
 62
     7
 10
-556.71598591678196
 20
-645.50728382863474
 30
0.0
  0
VERTEX
  5
701
  8
DATA
  6
CONTINUOUS
 62
     7
 10
-556.75129744039225
 20
-645.45718295132951
 30
0.0
  0
VERTEX
  5
702
  8
DATA
  6
CONTINUOUS
 62
     7
 10
-556.78687611113003
 20
-645.41056755672935
 30
0.0
  0
VERTEX
  5
703
  8
DATA
  6
CONTINUOUS
 62
     7
 10
-556.82272192899518
 20
-645.36743764483435
 30
0.0
  0
VERTEX
  5
704
  8
DATA
  6
CONTINUOUS
 62
     7
 10
-556.85883489398771
 20
-645.32779321564442
 30
0.0
  0
VERTEX
  5
705
  8
DATA
  6
CONTINUOUS
 62
     7
 10
-556.89521500610772
 20
-645.29163426915898
 30
0.0
  0
VERTEX
  5
706
  8
DATA
  6
CONTINUOUS
 62
     7
 10
-556.93186226535488
 20
-645.25896080537905
 30
0.0
  0
VERTEX
  5
707
  8
DATA
  6
CONTINUOUS
 62
     7
 10
-556.96907663031118
 20
-645.22948784225434
 30
0.0
  0
VERTEX
  5
708
  8
DATA
  6
CONTINUOUS
 62
     7
 10
-557.00715805955826
 20
-645.20293039773549
 30
0.0
  0
VERTEX
  5
709
  8
DATA
  6
CONTINUOUS
 62
     7
 10
-557.04610655309682
 20
-645.17928847182293
 30
0.0
  0
VERTEX
  5
70A
  8
DATA
  6
CONTINUOUS
 62
     7
 10
-557.08592211092571
 20
-645.15856206451588
 30
0.0
  0
VERTEX
  5
70B
  8
DATA
  6
CONTINUOUS
 62
     7
 10
-557.12660473304595
 20
-645.14075117581501
 30
0.0
  0
VERTEX
  5
70C
  8
DATA
  6
CONTINUOUS
 62
     7
 10
-557.1681544194571
 20
-645.12585580571988
 30
0.0
  0
VERTEX
  5
70D
  8
DATA
  6
CONTINUOUS
 62
     7
 10
-557.21057117015926
 20
-645.11387595423071
 30
0.0
  0
VERTEX
  5
70E
  8
DATA
  6
CONTINUOUS
 62
     7
 10
-557.25385498515232
 20
-645.10481162134761
 30
0.0
  0
VERTEX
  5
70F
  8
DATA
  6
CONTINUOUS
 62
     7
 10
-557.29770822583635
 20
-645.10008944830702
 30
0.0
  0
VERTEX
  5
710
  8
DATA
  6
CONTINUOUS
 62
     7
 10
-557.34183325361084
 20
-645.10113607634548
 30
0.0
  0
VERTEX
  5
711
  8
DATA
  6
CONTINUOUS
 62
     7
 10
-557.38623006847604
 20
-645.10795150546335
 30
0.0
  0
VERTEX
  5
712
  8
DATA
  6
CONTINUOUS
 62
     7
 10
-557.43089867043182
 20
-645.12053573566084
 30
0.0
  0
VERTEX
  5
713
  8
DATA
  6
CONTINUOUS
 62
     7
 10
-557.4758390594784
 20
-645.13888876693727
 30
0.0
  0
VERTEX
  5
714
  8
DATA
  6
CONTINUOUS
 62
     7
 10
-557.52105123561546
 20
-645.16301059929287
 30
0.0
  0
VERTEX
  5
715
  8
DATA
  6
CONTINUOUS
 62
     7
 10
-557.5665351988431
 20
-645.19290123272799
 30
0.0
  0
VERTEX
  5
716
  8
DATA
  6
CONTINUOUS
 62
     7
 10
-557.61229094916155
 20
-645.22856066724239
 30
0.0
  0
VERTEX
  5
717
  8
DATA
  6
CONTINUOUS
 62
     7
 10
-557.65747845461146
 20
-645.26838028415159
 30
0.0
  0
VERTEX
  5
718
  8
DATA
  6
CONTINUOUS
 62
     7
 10
-557.70125768323328
 20
-645.31075146477122
 30
0.0
  0
VERTEX
  5
719
  8
DATA
  6
CONTINUOUS
 62
     7
 10
-557.74362863502745
 20
-645.35567420910149
 30
0.0
  0
VERTEX
  5
71A
  8
DATA
  6
CONTINUOUS
 62
     7
 10
-557.78459130999352
 20
-645.40314851714231
 30
0.0
  0
VERTEX
  5
71B
  8
DATA
  6
CONTINUOUS
 62
     7
 10
-557.82414570813171
 20
-645.45317438889333
 30
0.0
  0
VERTEX
  5
71C
  8
DATA
  6
CONTINUOUS
 62
     7
 10
-557.86229182944203
 20
-645.50575182435512
 30
0.0
  0
VERTEX
  5
71D
  8
DATA
  6
CONTINUOUS
 62
     7
 10
-557.89902967392447
 20
-645.56088082352721
 30
0.0
  0
VERTEX
  5
71E
  8
DATA
  6
CONTINUOUS
 62
     7
 10
-557.93435924157905
 20
-645.61856138640985
 30
0.0
  0
VERTEX
  5
71F
  8
DATA
  6
CONTINUOUS
 62
     7
 10
-557.96862190447428
 20
-645.67906619213136
 30
0.0
  0
VERTEX
  5
720
  8
DATA
  6
CONTINUOUS
 62
     7
 10
-558.00215903467824
 20
-645.74266791981995
 30
0.0
  0
VERTEX
  5
721
  8
DATA
  6
CONTINUOUS
 62
     7
 10
-558.03497063219152
 20
-645.80936656947586
 30
0.0
  0
VERTEX
  5
722
  8
DATA
  6
CONTINUOUS
 62
     7
 10
-558.06705669701353
 20
-645.87916214109885
 30
0.0
  0
VERTEX
  5
723
  8
DATA
  6
CONTINUOUS
 62
     7
 10
-558.09841722914439
 20
-645.95205463468915
 30
0.0
  0
VERTEX
  5
724
  8
DATA
  6
CONTINUOUS
 62
     7
 10
-558.12905222858433
 20
-646.02804405024654
 30
0.0
  0
VERTEX
  5
725
  8
DATA
  6
CONTINUOUS
 62
     7
 10
-558.15896169533335
 20
-646.10713038777112
 30
0.0
  0
VERTEX
  5
726
  8
DATA
  6
CONTINUOUS
 62
     7
 10
-558.1881456293911
 20
-646.18931364726257
 30
0.0
  0
VERTEX
  5
727
  8
DATA
  6
CONTINUOUS
 62
     7
 10
-558.21643203560711
 20
-646.27409462844162
 30
0.0
  0
VERTEX
  5
728
  8
DATA
  6
CONTINUOUS
 62
     7
 10
-558.24364891883079
 20
-646.36097413102755
 30
0.0
  0
VERTEX
  5
729
  8
DATA
  6
CONTINUOUS
 62
     7
 10
-558.26979627906223
 20
-646.44995215502036
 30
0.0
  0
VERTEX
  5
72A
  8
DATA
  6
CONTINUOUS
 62
     7
 10
-558.294874116301
 20
-646.54102870042072
 30
0.0
  0
VERTEX
  5
72B
  8
DATA
  6
CONTINUOUS
 62
     7
 10
-558.31888243054721
 20
-646.63420376722786
 30
0.0
  0
VERTEX
  5
72C
  8
DATA
  6
CONTINUOUS
 62
     7
 10
-558.34182122180118
 20
-646.72947735544233
 30
0.0
  0
VERTEX
  5
72D
  8
DATA
  6
CONTINUOUS
 62
     7
 10
-558.36369049006282
 20
-646.82684946506367
 30
0.0
  0
VERTEX
  5
72E
  8
DATA
  6
CONTINUOUS
 62
     7
 10
-558.3844902353319
 20
-646.92632009609201
 30
0.0
  0
VERTEX
  5
72F
  8
DATA
  6
CONTINUOUS
 62
     7
 10
-558.40415388884992
 20
-647.02722306301951
 30
0.0
  0
VERTEX
  5
730
  8
DATA
  6
CONTINUOUS
 62
     7
 10
-558.42261488185795
 20
-647.12889218033831
 30
0.0
  0
VERTEX
  5
731
  8
DATA
  6
CONTINUOUS
 62
     7
 10
-558.43987321435645
 20
-647.23132744804775
 30
0.0
  0
VERTEX
  5
732
  8
DATA
  6
CONTINUOUS
 62
     7
 10
-558.45592888634508
 20
-647.33452886614839
 30
0.0
  0
VERTEX
  5
733
  8
DATA
  6
CONTINUOUS
 62
     7
 10
-558.47078189782405
 20
-647.43849643463989
 30
0.0
  0
VERTEX
  5
734
  8
DATA
  6
CONTINUOUS
 62
     7
 10
-558.48443224879327
 20
-647.5432301535227
 30
0.0
  0
VERTEX
  5
735
  8
DATA
  6
CONTINUOUS
 62
     7
 10
-558.49687993925272
 20
-647.64873002279649
 30
0.0
  0
VERTEX
  5
736
  8
DATA
  6
CONTINUOUS
 62
     7
 10
-558.50812496920253
 20
-647.75499604246147
 30
0.0
  0
VERTEX
  5
737
  8
DATA
  6
CONTINUOUS
 62
     7
 10
-558.51824842290387
 20
-647.86301075477036
 30
0.0
  0
VERTEX
  5
738
  8
DATA
  6
CONTINUOUS
 62
     7
 10
-558.52733138461872
 20
-647.97375670197675
 30
0.0
  0
VERTEX
  5
739
  8
DATA
  6
CONTINUOUS
 62
     7
 10
-558.53537385434652
 20
-648.08723388408055
 30
0.0
  0
VERTEX
  5
73A
  8
DATA
  6
CONTINUOUS
 62
     7
 10
-558.54237583208783
 20
-648.20344230108162
 30
0.0
  0
VERTEX
  5
73B
  8
DATA
  6
CONTINUOUS
 62
     7
 10
-558.54833731784231
 20
-648.32238195297998
 30
0.0
  0
VERTEX
  5
73C
  8
DATA
  6
CONTINUOUS
 62
     7
 10
-558.55325831160997
 20
-648.44405283977551
 30
0.0
  0
VERTEX
  5
73D
  8
DATA
  6
CONTINUOUS
 62
     7
 10
-558.55713881339102
 20
-648.56845496146866
 30
0.0
  0
VERTEX
  5
73E
  8
DATA
  6
CONTINUOUS
 62
     7
 10
-558.55997882318525
 20
-648.69558831805898
 30
0.0
  0
VERTEX
  5
73F
  8
DATA
  6
CONTINUOUS
 62
     7
 10
-558.55997882318525
 20
-648.69558831805898
 30
0.0
  0
VERTEX
  5
740
  8
DATA
  6
CONTINUOUS
 62
     7
 10
-558.55997882318525
 20
-648.79588120000005
 30
0.0
  0
SEQEND
  5
741
  8
DATA
  6
CONTINUOUS
 62
     7
  0
LINE
  5
3BA
  8
DATA
  6
CONTINUOUS
 62
     7
 10
-631.53039000000012
 20
-643.4778070000001
 30
0.0
 11
-626.65358999999989
 21
-643.4778070000001
 31
0.0
  0
LINE
  5
3BB
  8
DATA
  6
CONTINUOUS
 62
     7
 10
-629.09198999999978
 20
-645.9162070000001
 30
0.0
 11
-629.09198999999978
 21
-641.0394070000001
 31
0.0
  0
ARC
  5
3BC
  8
DATA
  6
CONTINUOUS
 62
     7
 10
-557.28999999999985
 20
-660.56725719999974
 30
0.0
 40
8.8899999999998744
 50
98.213221000000857
 51
261.78677899999911
  0
LINE
  5
3BD
  8
DATA
  6
CONTINUOUS
 62
     7
 10
-597.92999999999984
 20
-647.93075720000002
 30
0.0
 11
-597.92999999999984
 21
-673.20375720000015
 31
0.0
  0
LINE
  5
3BE
  8
DATA
  6
CONTINUOUS
 62
     7
 10
-595.49159999999983
 20
-647.93075720000002
 30
0.0
 11
-595.49159999999983
 21
-673.20375720000015
 31
0.0
  0
LINE
  5
3BF
  8
DATA
  6
CONTINUOUS
 62
     7
 10
-556.01999999999998
 20
-648.79588120000005
 30
0.0
 11
-556.01999999999998
 21
-672.3386332
 31
0.0
  0
LINE
  5
3C0
  8
DATA
  6
CONTINUOUS
 62
     7
 10
-558.55999999999995
 20
-648.79588120000005
 30
0.0
 11
-558.55999999999995
 21
-672.3386332
 31
0.0
  0
LINE
  5
3C1
  8
DATA
  6
CONTINUOUS
 62
     7
 10
-607.58199999999988
 20
-647.93075720000002
 30
0.0
 11
-607.58199999999988
 21
-673.20375720000015
 31
0.0
  0
LINE
  5
3C2
  8
DATA
  6
CONTINUOUS
 62
     7
 10
-610.02039999999977
 20
-647.93075720000002
 30
0.0
 11
-610.02039999999977
 21
-673.20375720000015
 31
0.0
  0
CIRCLE
  5
3C3
  8
DATA
  6
CONTINUOUS
 62
     7
 10
-629.09198999999978
 20
-643.47780699999998
 30
0.0
 40
4.7999903999998406
  0
ARC
  5
3C4
  8
DATA
  6
CONTINUOUS
 62
     7
 10
-602.75599999999974
 20
-647.93075720000002
 30
0.0
 40
4.8260000000000209
 50
0.0
 51
180.0
  0
ARC
  5
3C5
  8
DATA
  6
CONTINUOUS
 62
     7
 10
-602.75599999999974
 20
-647.93075720000002
 30
0.0
 40
7.2644000000000224
 50
0.0
 51
180.0
  0
LINE
  5
3C6
  8
DATA
  6
CONTINUOUS
 62
     7
 10
-544.89480000000003
 20
-673.60510375523245
 30
0.0
 11
-544.89480000000003
 21
-644.27707220000002
 31
0.0
  0
ARC
  5
3C7
  8
DATA
  6
CONTINUOUS
 62
     7
 10
-545.32479999999975
 20
-644.27707220000002
 30
0.0
 40
0.4299999999998363
 50
0.0
 51
90.0
  0
LINE
  5
3C8
  8
DATA
  6
CONTINUOUS
 62
     7
 10
-519.08840000000009
 20
-660.88851752467485
 30
0.0
 11
-519.08840000000009
 21
-647.93075720000002
 31
0.0
  0
LINE
  5
3C9
  8
DATA
  6
CONTINUOUS
 62
     7
 10
-516.64999999999998
 20
-661.01301664312473
 30
0.0
 11
-516.64999999999998
 21
-647.93075720000002
 31
0.0
  0
LINE
  5
3CA
  8
DATA
  6
CONTINUOUS
 62
     7
 10
-506.9980000000001
 20
-661.25240477349803
 30
0.0
 11
-506.9980000000001
 21
-647.93075720000002
 31
0.0
  0
LINE
  5
3CB
  8
DATA
  6
CONTINUOUS
 62
     7
 10
-504.5596000000001
 20
-660.91604767973945
 30
0.0
 11
-504.5596000000001
 21
-647.93075720000002
 31
0.0
  0
ARC
  5
3CC
  8
DATA
  6
CONTINUOUS
 62
     7
 10
-520.79935394154427
 20
-680.98749479942478
 30
0.0
 40
20.187483109129861
 50
89.474429345567913
 51
133.13618246688341
  0
ARC
  5
3CD
  8
DATA
  6
CONTINUOUS
 62
     7
 10
-501.98975014635693
 20
-349.940930185122
 30
0.0
 40
311.41735002903511
 50
266.57135913832502
 51
268.7751091413943
  0
ARC
  5
3CE
  8
DATA
  6
CONTINUOUS
 62
     7
 10
-508.19511945308801
 20
-643.56726742377998
 30
0.0
 40
17.725607974434912
 50
268.53970930357781
 51
294.72382064235512
  0
ARC
  5
3CF
  8
DATA
  6
CONTINUOUS
 62
     7
 10
-515.62341527903527
 20
-638.00488409095669
 30
0.0
 40
26.259774049041319
 50
304.41595332514629
 51
327.13049990452657
  0
ARC
  5
3D0
  8
DATA
  6
CONTINUOUS
 62
     7
 10
-511.82400000000013
 20
-647.93075720000002
 30
0.0
 40
4.8260000000000209
 50
0.0
 51
180.0
  0
ARC
  5
3D1
  8
DATA
  6
CONTINUOUS
 62
     7
 10
-511.82400000000013
 20
-647.93075720000002
 30
0.0
 40
7.2644000000000224
 50
0.0
 51
180.0
  0
LINE
  5
3D2
  8
DATA
  6
CONTINUOUS
 62
     7
 10
-519.19000000000005
 20
-622.46725719999995
 30
0.0
 11
-595.38999999999987
 21
-622.46725719999995
 31
0.0
  0
ARC
  5
3D3
  8
DATA
  6
CONTINUOUS
 62
     7
 10
-636.29014020000011
 20
-624.59560600000009
 30
0.0
 40
0.7599999999999909
 50
90.0
 51
180.0
  0
LINE
  5
3D4
  8
DATA
  6
CONTINUOUS
 62
     7
 10
-628.9181401999997
 20
-623.83560599999998
 30
0.0
 11
-636.29014020000011
 21
-623.83560599999998
 31
0.0
  0
ARC
  5
3D5
  8
DATA
  6
CONTINUOUS
 62
     7
 10
-628.9181401999997
 20
-622.315606
 30
0.0
 40
1.5199999999999809
 50
270.0
 51
0.0
  0
LINE
  5
3D6
  8
DATA
  6
CONTINUOUS
 62
     7
 10
-627.39814019999994
 20
-620.7876060000001
 30
0.0
 11
-627.39814019999994
 21
-622.315606
 31
0.0
  0
ARC
  5
3D7
  8
DATA
  6
CONTINUOUS
 62
     7
 10
-639.98764360000018
 20
-619.29495620000012
 30
0.0
 40
2.0299999999999718
 50
90.0
 51
180.0
  0
ARC
  5
3D8
  8
DATA
  6
CONTINUOUS
 62
     7
 10
-648.4799999999999
 20
-616.2505187999999
 30
0.0
 40
1.5199999999999809
 50
90.0
 51
180.0
  0
LINE
  5
3D9
  8
DATA
  6
CONTINUOUS
 62
     7
 10
-648.16982934307703
 20
-382.1076928360643
 30
0.0
 11
-650.0
 21
-359.84689591111078
 31
0.0
  0
ARC
  5
3DA
  8
DATA
  6
CONTINUOUS
 62
     7
 10
-635.71186200785155
 20
-381.08346147818861
 30
0.0
 40
12.50000000000002
 50
184.7000000000003
 51
260.53640516317341
  0
LINE
  5
3DB
  8
DATA
  6
CONTINUOUS
 62
     7
 10
-642.01764359999981
 20
-394.9719445508922
 30
0.0
 11
-642.01764359999981
 21
-391.87638131075101
 31
0.0
  0
ARC
  5
3DC
  8
DATA
  6
CONTINUOUS
 62
     7
 10
-599.67377237112976
 20
-270.08075551111068
 30
0.0
 40
12.5
 50
90.0
 51
157.7000000000001
  0
LINE
  5
3DD
  8
DATA
  6
CONTINUOUS
 62
     7
 10
-599.67377237112976
 20
-257.5807555111104
 30
0.0
 11
-514.90622762886949
 21
-257.5807555111104
 31
0.0
  0
ARC
  5
3DE
  8
DATA
  6
CONTINUOUS
 62
     7
 10
-514.90622762886949
 20
-270.08075551111068
 30
0.0
 40
12.499999999999909
 50
22.299999999999841
 51
89.999999999999986
  0
LINE
  5
3DF
  8
DATA
  6
CONTINUOUS
 62
     7
 10
-472.56235640000011
 20
-845.4355625999998
 30
0.0
 11
-472.56235640000011
 21
-619.29495620000012
 31
0.0
  0
LINE
  5
3E0
  8
DATA
  6
CONTINUOUS
 62
     7
 10
-464.58000000000033
 20
-848.4799999999999
 30
0.0
 11
-464.57999999999993
 21
-616.2505187999999
 31
0.0
  0
LINE
  5
3E1
  8
DATA
  6
CONTINUOUS
 62
     7
 10
-99.999999999999915
 20
-845.43323239999995
 30
0.0
 11
-99.999999999999915
 21
-619.29728640000019
 31
0.0
  0
LINE
  5
3E2
  8
DATA
  6
CONTINUOUS
 62
     7
 10
-93.648933199999547
 20
-847.4655626
 30
0.0
 11
-93.648933199999547
 21
-617.26495620000014
 31
0.0
  0
LINE
  5
3E3
  8
DATA
  6
CONTINUOUS
 62
     7
 10
-57.485784799999593
 20
-846.62438187059081
 30
0.0
 11
-57.485784799999593
 21
-618.10621434020265
 31
0.0
  0
LINE
  5
3E4
  8
DATA
  6
CONTINUOUS
 62
     7
 10
-87.186222740456174
 20
-615.50771836706531
 30
0.0
 11
-87.186222740456174
 21
-849.22279856327884
 31
0.0
  0
LINE
  5
3E5
  8
DATA
  6
CONTINUOUS
 62
     7
 10
44.780355599999993
 20
-836.28454917566398
 30
0.0
 11
44.780355600000448
 21
-628.44631631405707
 31
0.0
  0
ARC
  5
3E6
  8
DATA
  6
CONTINUOUS
 62
     7
 10
-478.2898598000001
 20
-840.16000800000029
 30
0.0
 40
0.7599999999999909
 50
270.0
 51
0.0
  0
LINE
  5
3E7
  8
DATA
  6
CONTINUOUS
 62
     7
 10
-477.5298598
 20
-840.16000800000029
 30
0.0
 11
-477.5298598
 21
-832.78800799999988
 31
0.0
  0
LINE
  5
3E8
  8
DATA
  6
CONTINUOUS
 62
     7
 10
-485.66185979999989
 20
-840.92000800000005
 30
0.0
 11
-478.2898598000001
 21
-840.92000800000005
 31
0.0
  0
ARC
  5
3E9
  8
DATA
  6
CONTINUOUS
 62
     7
 10
-476.0098597999999
 20
-832.78800799999988
 30
0.0
 40
1.5199999999999809
 50
90.0
 51
180.0
  0
LINE
  5
3EA
  8
DATA
  6
CONTINUOUS
 62
     7
 10
-476.0098597999999
 20
-831.26800800000012
 30
0.0
 11
-474.48185979999971
 21
-831.26800800000012
 31
0.0
  0
ARC
  5
3EB
  8
DATA
  6
CONTINUOUS
 62
     7
 10
-485.66185979999989
 20
-842.44000799999992
 30
0.0
 40
1.5199999999999809
 50
90.0
 51
180.0
  0
LINE
  5
3EC
  8
DATA
  6
CONTINUOUS
 62
     7
 10
-487.18185979999993
 20
-843.96800800000005
 30
0.0
 11
-487.18185979999993
 21
-842.44000799999992
 31
0.0
  0
ARC
  5
3ED
  8
DATA
  6
CONTINUOUS
 62
     7
 10
-474.59235640000003
 20
-845.4355625999998
 30
0.0
 40
2.0299999999999718
 50
270.0
 51
0.0
  0
LINE
  5
3EE
  8
DATA
  6
CONTINUOUS
 62
     7
 10
-473.5783563999999
 20
-843.96800800000005
 30
0.0
 11
-473.5783563999999
 21
-802.20598522385274
 31
0.0
  0
LINE
  5
3EF
  8
DATA
  6
CONTINUOUS
 62
     7
 10
-474.48185979999971
 20
-831.26800800000012
 30
0.0
 11
-474.48185979999971
 21
-802.13764424334295
 31
0.0
  0
ARC
  5
3F0
  8
DATA
  6
CONTINUOUS
 62
     7
 10
-466.09999999999991
 20
-848.4799999999999
 30
0.0
 40
1.5199999999999809
 50
270.0
 51
0.0
  0
LINE
  5
3F1
  8
DATA
  6
CONTINUOUS
 62
     7
 10
-487.92640999999992
 20
-821.27780700000017
 30
0.0
 11
-483.04960999999992
 21
-821.27780700000017
 31
0.0
  0
LINE
  5
3F2
  8
DATA
  6
CONTINUOUS
 62
     7
 10
-485.48800999999992
 20
-823.71620700000005
 30
0.0
 11
-485.48800999999992
 21
-818.83940700000039
 31
0.0
  0
CIRCLE
  5
3F3
  8
DATA
  6
CONTINUOUS
 62
     7
 10
-485.48800999999992
 20
-821.27780700000017
 30
0.0
 40
4.7999903999998406
  0
LINE
  5
3F4
  8
DATA
  6
CONTINUOUS
 62
     7
 10
44.503706523758062
 20
-743.65416073143842
 30
0.0
 11
44.881208264644187
 21
-743.46594530642415
 31
0.0
  0
LINE
  5
3F5
  8
DATA
  6
CONTINUOUS
 62
     7
 10
-96.001278000000084
 20
-849.99400559999992
 30
0.0
 11
43.392830561727003
 21
-837.79876527137662
 31
0.0
  0
LINE
  5
3F6
  8
DATA
  6
CONTINUOUS
 62
     7
 10
-97.967669799999726
 20
-847.4655626
 30
0.0
 11
-93.648933200000002
 21
-847.4655626
 31
0.0
  0
ARC
  5
3F7
  8
DATA
  6
CONTINUOUS
 62
     7
 10
-97.967669799999726
 20
-845.43323239999995
 30
0.0
 40
2.03233020000016
 50
180.0
 51
270.0
  0
ARC
  5
3F8
  8
DATA
  6
CONTINUOUS
 62
     7
 10
-96.138564999999645
 20
-848.4249460000002
 30
0.0
 40
1.5750539999999089
 50
180.0
 51
274.99999999999
  0
LINE
  5
3F9
  8
DATA
  6
CONTINUOUS
 62
     7
 10
-97.713618999999994
 20
-848.4249460000002
 30
0.0
 11
-97.713618999999994
 21
-847.4655626
 31
0.0
  0
LINE
  5
3FA
  8
DATA
  6
CONTINUOUS
 62
     7
 10
44.482083400000278
 20
-737.83596220000004
 30
0.0
 11
44.780355600000448
 21
-737.53769
 31
0.0
  0
ARC
  5
3FB
  8
DATA
  6
CONTINUOUS
 62
     7
 10
43.260355600000011
 20
-836.28454917566398
 30
0.0
 40
1.5200000000000471
 50
274.99993312979512
 51
0.0
  0
LINE
  5
3FC
  8
DATA
  6
CONTINUOUS
 62
     7
 10
-477.5298598
 20
-624.59560600000009
 30
0.0
 11
-477.5298598
 21
-631.96760599999982
 31
0.0
  0
LINE
  5
3FD
  8
DATA
  6
CONTINUOUS
 62
     7
 10
-473.5783563999999
 20
-643.12217560807267
 30
0.0
 11
-473.5783563999999
 21
-620.7876060000001
 31
0.0
  0
ARC
  5
3FE
  8
DATA
  6
CONTINUOUS
 62
     7
 10
-476.0098597999999
 20
-631.96760599999982
 30
0.0
 40
1.5199999999999809
 50
180.0
 51
270.0
  0
LINE
  5
3FF
  8
DATA
  6
CONTINUOUS
 62
     7
 10
-476.0098597999999
 20
-633.4876059999998
 30
0.0
 11
-474.48185979999971
 21
-633.4876059999998
 31
0.0
  0
LINE
  5
400
  8
DATA
  6
CONTINUOUS
 62
     7
 10
-485.48800999999992
 20
-641.0394070000001
 30
0.0
 11
-485.48800999999992
 21
-643.5609538957716
 31
0.0
  0
LINE
  5
401
  8
DATA
  6
CONTINUOUS
 62
     7
 10
-487.92640999999992
 20
-643.4778070000001
 30
0.0
 11
-485.3335514257036
 21
-643.4778070000001
 31
0.0
  0
ARC
  5
402
  8
DATA
  6
CONTINUOUS
 62
     7
 10
-485.48800999999992
 20
-643.47780699999998
 30
0.0
 40
4.7999903999999036
 50
17.297727990725608
 51
220.64650893214139
  0
ARC
  5
403
  8
DATA
  6
CONTINUOUS
 62
     7
 10
-479.09433237658999
 20
-655.25318717128459
 30
0.0
 40
13.326193474548511
 50
60.648857237027578
 51
123.1929196416545
  0
LINE
  5
404
  8
DATA
  6
CONTINUOUS
 62
     7
 10
-474.48185979999971
 20
-642.75068625141625
 30
0.0
 11
-474.48185979999971
 21
-633.4876059999998
 31
0.0
  0
ARC
  5
405
  8
DATA
  6
CONTINUOUS
 62
     7
 10
-478.2898598000001
 20
-624.59560600000009
 30
0.0
 40
0.7599999999997636
 50
0.0
 51
90.0
  0
LINE
  5
406
  8
DATA
  6
CONTINUOUS
 62
     7
 10
-485.66185979999989
 20
-623.83560599999998
 30
0.0
 11
-478.2898598000001
 21
-623.83560599999998
 31
0.0
  0
ARC
  5
407
  8
DATA
  6
CONTINUOUS
 62
     7
 10
-485.66185979999989
 20
-622.315606
 30
0.0
 40
1.5199999999999809
 50
180.0
 51
270.0
  0
LINE
  5
408
  8
DATA
  6
CONTINUOUS
 62
     7
 10
-487.18185979999993
 20
-620.7876060000001
 30
0.0
 11
-487.18185979999993
 21
-622.315606
 31
0.0
  0
ARC
  5
409
  8
DATA
  6
CONTINUOUS
 62
     7
 10
-474.59235640000003
 20
-619.29495620000012
 30
0.0
 40
2.0299999999997449
 50
0.0
 51
90.0
  0
ARC
  5
40A
  8
DATA
  6
CONTINUOUS
 62
     7
 10
-466.09999999999991
 20
-616.2505187999999
 30
0.0
 40
1.5199999999995271
 50
0.0
 51
90.0
  0
LINE
  5
40B
  8
DATA
  6
CONTINUOUS
 62
     7
 10
-466.41017065692313
 20
-382.1076928360643
 30
0.0
 11
-464.57999999999993
 21
-359.84689591111078
 31
0.0
  0
ARC
  5
40C
  8
DATA
  6
CONTINUOUS
 62
     7
 10
-478.86813799214849
 20
-381.08346147818861
 30
0.0
 40
12.50000000000002
 50
279.46359483682761
 51
355.29999999999978
  0
LINE
  5
40D
  8
DATA
  6
CONTINUOUS
 62
     7
 10
-472.56235640000011
 20
-394.9719445508922
 30
0.0
 11
-472.56235640000011
 21
-391.81971492434877
 31
0.0
  0
LINE
  5
40E
  8
DATA
  6
CONTINUOUS
 62
     7
 10
-96.001278000000084
 20
-614.73648779999985
 30
0.0
 11
43.392834572975161
 21
-626.93210056928376
 31
0.0
  0
ARC
  5
40F
  8
DATA
  6
CONTINUOUS
 62
     7
 10
43.260355600000459
 20
-628.44631631405707
 30
0.0
 40
1.5199999999999809
 50
0.0
 51
84.999915090288795
  0
ARC
  5
410
  8
DATA
  6
CONTINUOUS
 62
     7
 10
-97.967669799999726
 20
-619.29728640000019
 30
0.0
 40
2.03233020000016
 50
90.0
 51
180.0
  0
LINE
  5
411
  8
DATA
  6
CONTINUOUS
 62
     7
 10
-97.967669799999726
 20
-617.26495620000014
 30
0.0
 11
-93.648933200000002
 21
-617.26495620000014
 31
0.0
  0
ARC
  5
412
  8
DATA
  6
CONTINUOUS
 62
     7
 10
-96.138564999999645
 20
-616.30557280000005
 30
0.0
 40
1.575053999999855
 50
85.000000000008924
 51
180.0
  0
LINE
  5
413
  8
DATA
  6
CONTINUOUS
 62
     7
 10
-97.713618999999994
 20
-617.26495620000014
 30
0.0
 11
-97.713618999999994
 21
-616.30557280000005
 31
0.0
  0
LINE
  5
414
  8
DATA
  6
CONTINUOUS
 62
     7
 10
-495.80030581325752
 20
119.5
 30
0.0
 11
-461.0
 21
119.5
 31
0.0
  0
LINE
  5
415
  8
DATA
  6
CONTINUOUS
 62
     7
 10
-461.0
 20
130.5
 30
0.0
 11
-495.80030581325752
 21
130.5
 31
0.0
  0
LINE
  5
416
  8
DATA
  6
CONTINUOUS
 62
     7
 10
-566.0
 20
83.000000000000213
 30
0.0
 11
-566.0
 21
166.99999999999969
 31
0.0
  0
LINE
  5
417
  8
DATA
  6
CONTINUOUS
 62
     7
 10
-565.0
 20
83.000000000000213
 30
0.0
 11
-565.0
 21
167.0000000000002
 31
0.0
  0
LINE
  5
418
  8
DATA
  6
CONTINUOUS
 62
     7
 10
-635.0
 20
83.000000000000213
 30
0.0
 11
-635.0
 21
166.99999999999969
 31
0.0
  0
LINE
  5
419
  8
DATA
  6
CONTINUOUS
 62
     7
 10
-634.0
 20
83.000000000000213
 30
0.0
 11
-633.99999999999977
 21
166.99999999999969
 31
0.0
  0
LINE
  5
41A
  8
DATA
  6
CONTINUOUS
 62
     7
 10
-566.0
 20
134.87956810631249
 30
0.0
 11
-575.0
 21
134.87956810631249
 31
0.0
  0
LINE
  5
41B
  8
DATA
  6
CONTINUOUS
 62
     7
 10
-566.0
 20
133.75
 30
0.0
 11
-575.0
 21
133.75
 31
0.0
  0
LINE
  5
41C
  8
DATA
  6
CONTINUOUS
 62
     7
 10
-566.0
 20
116.25
 30
0.0
 11
-575.0
 21
116.25
 31
0.0
  0
LINE
  5
41D
  8
DATA
  6
CONTINUOUS
 62
     7
 10
-575.0
 20
115.12043189368789
 30
0.0
 11
-566.0
 21
115.12043189368789
 31
0.0
  0
ARC
  5
41E
  8
DATA
  6
CONTINUOUS
 62
     7
 10
-575.0
 20
125.0
 30
0.0
 40
9.8795681063122878
 50
210.63293386126011
 51
270.0
  0
ARC
  5
41F
  8
DATA
  6
CONTINUOUS
 62
     7
 10
-575.0
 20
125.0
 30
0.0
 40
9.8795681063122647
 50
90.0
 51
149.36706613873989
  0
ARC
  5
420
  8
DATA
  6
CONTINUOUS
 62
     7
 10
-575.0
 20
125.0
 30
0.0
 40
8.7499999999999822
 50
202.56742262803559
 51
270.0
  0
ARC
  5
421
  8
DATA
  6
CONTINUOUS
 62
     7
 10
-575.0
 20
125.0
 30
0.0
 40
8.75
 50
90.0
 51
157.4325773719643
  0
CIRCLE
  5
422
  8
DATA
  6
CONTINUOUS
 62
     7
 10
-574.99999999999955
 20
125.0
 30
0.0
 40
3.5
  0
ARC
  5
423
  8
DATA
  6
CONTINUOUS
 62
     7
 10
-569.0
 20
83.000000000000213
 30
0.0
 40
3.0
 50
270.0
 51
0.0
  0
ARC
  5
424
  8
DATA
  6
CONTINUOUS
 62
     7
 10
-567.99999999999966
 20
83.000000000000213
 30
0.0
 40
3.0
 50
270.0
 51
0.0
  0
LINE
  5
425
  8
DATA
  6
CONTINUOUS
 62
     7
 10
-590.12043189368751
 20
90.500000000000213
 30
0.0
 11
-590.12043189368751
 21
80.000000000000455
 31
0.0
  0
LINE
  5
426
  8
DATA
  6
CONTINUOUS
 62
     7
 10
-591.24999999999955
 20
90.500000000000213
 30
0.0
 11
-591.24999999999955
 21
80.000000000000213
 31
0.0
  0
ARC
  5
427
  8
DATA
  6
CONTINUOUS
 62
     7
 10
-625.0
 20
125.0
 30
0.0
 40
9.8795681063123677
 50
30.632933861258302
 51
90.0
  0
ARC
  5
428
  8
DATA
  6
CONTINUOUS
 62
     7
 10
-625.0
 20
125.0
 30
0.0
 40
9.8795681063122647
 50
270.0
 51
329.36706613874162
  0
ARC
  5
429
  8
DATA
  6
CONTINUOUS
 62
     7
 10
-625.0
 20
125.0
 30
0.0
 40
8.7500000000000195
 50
22.56742262803234
 51
90.0
  0
ARC
  5
42A
  8
DATA
  6
CONTINUOUS
 62
     7
 10
-625.0
 20
125.0
 30
0.0
 40
8.75
 50
270.0
 51
337.4325773719678
  0
LINE
  5
42B
  8
DATA
  6
CONTINUOUS
 62
     7
 10
-625.0
 20
134.87956810631249
 30
0.0
 11
-633.99999999999955
 21
134.87956810631249
 31
0.0
  0
LINE
  5
42C
  8
DATA
  6
CONTINUOUS
 62
     7
 10
-625.0
 20
133.75
 30
0.0
 11
-634.0
 21
133.75
 31
0.0
  0
LINE
  5
42D
  8
DATA
  6
CONTINUOUS
 62
     7
 10
-625.0
 20
116.25
 30
0.0
 11
-634.0
 21
116.25
 31
0.0
  0
LINE
  5
42E
  8
DATA
  6
CONTINUOUS
 62
     7
 10
-625.0
 20
115.12043189368789
 30
0.0
 11
-634.0
 21
115.12043189368789
 31
0.0
  0
CIRCLE
  5
42F
  8
DATA
  6
CONTINUOUS
 62
     7
 10
-624.99999999999977
 20
125.0
 30
0.0
 40
3.5
  0
ARC
  5
430
  8
DATA
  6
CONTINUOUS
 62
     7
 10
-632.0
 20
83.000000000000213
 30
0.0
 40
3.0
 50
180.0
 51
270.0
  0
ARC
  5
431
  8
DATA
  6
CONTINUOUS
 62
     7
 10
-631.0
 20
83.000000000000213
 30
0.0
 40
3.0
 50
180.0
 51
270.0
  0
LINE
  5
432
  8
DATA
  6
CONTINUOUS
 62
     7
 10
-608.75
 20
90.500000000000213
 30
0.0
 11
-608.75
 21
80.000000000000213
 31
0.0
  0
LINE
  5
433
  8
DATA
  6
CONTINUOUS
 62
     7
 10
-609.87956810631204
 20
90.500000000000213
 30
0.0
 11
-609.87956810631204
 21
80.000000000000213
 31
0.0
  0
CIRCLE
  5
434
  8
DATA
  6
CONTINUOUS
 62
     7
 10
-600.0
 20
90.500000000000213
 30
0.0
 40
3.5
  0
ARC
  5
435
  8
DATA
  6
CONTINUOUS
 62
     7
 10
-600.0
 20
90.500000000000213
 30
0.0
 40
8.75
 50
0.0
 51
180.0
  0
ARC
  5
436
  8
DATA
  6
CONTINUOUS
 62
     7
 10
-600.0
 20
90.500000000000213
 30
0.0
 40
9.8795681063124903
 50
0.0
 51
180.0
  0
CIRCLE
  5
437
  8
DATA
  6
CONTINUOUS
 62
     7
 10
-600.0
 20
125.0
 30
0.0
 40
17.25
  0
LINE
  5
438
  8
DATA
  6
CONTINUOUS
 62
     7
 10
-632.0
 20
80.000000000000455
 30
0.0
 11
-567.99999999999966
 21
80.000000000000213
 31
0.0
  0
LINE
  5
439
  8
DATA
  6
CONTINUOUS
 62
     7
 10
-605.49999999999989
 20
238.19969418674279
 30
0.0
 11
-605.49999999999989
 21
273.00000000000068
 31
0.0
  0
LINE
  5
43A
  8
DATA
  6
CONTINUOUS
 62
     7
 10
-594.49999999999955
 20
238.19969418674279
 30
0.0
 11
-594.49999999999955
 21
273.00000000000068
 31
0.0
  0
CIRCLE
  5
43B
  8
DATA
  6
CONTINUOUS
 62
     7
 10
-600.0
 20
221.85000000000039
 30
0.0
 40
17.25
  0
ARC
  5
43C
  8
DATA
  6
CONTINUOUS
 62
     7
 10
-569.00000000000045
 20
166.99999999999969
 30
0.0
 40
3.0
 50
0.0
 51
90.0
  0
ARC
  5
43D
  8
DATA
  6
CONTINUOUS
 62
     7
 10
-567.99999999999966
 20
167.0000000000002
 30
0.0
 40
3.0
 50
0.0
 51
90.0
  0
LINE
  5
43E
  8
DATA
  6
CONTINUOUS
 62
     7
 10
-590.12043189368751
 20
159.5000000000004
 30
0.0
 11
-590.12043189368751
 21
170.0
 31
0.0
  0
LINE
  5
43F
  8
DATA
  6
CONTINUOUS
 62
     7
 10
-591.24999999999955
 20
159.5000000000004
 30
0.0
 11
-591.24999999999955
 21
170.0
 31
0.0
  0
LINE
  5
440
  8
DATA
  6
CONTINUOUS
 62
     7
 10
-608.75
 20
159.5000000000004
 30
0.0
 11
-608.75
 21
170.0
 31
0.0
  0
LINE
  5
441
  8
DATA
  6
CONTINUOUS
 62
     7
 10
-609.87956810631204
 20
159.5000000000004
 30
0.0
 11
-609.87956810631204
 21
170.0
 31
0.0
  0
ARC
  5
442
  8
DATA
  6
CONTINUOUS
 62
     7
 10
-632.0
 20
166.99999999999969
 30
0.0
 40
3.0
 50
90.0
 51
180.0
  0
ARC
  5
443
  8
DATA
  6
CONTINUOUS
 62
     7
 10
-630.99999999999966
 20
166.99999999999969
 30
0.0
 40
3.0
 50
90.0
 51
180.0
  0
ARC
  5
444
  8
DATA
  6
CONTINUOUS
 62
     7
 10
-600.0
 20
159.5000000000004
 30
0.0
 40
8.75
 50
180.0
 51
0.0
  0
CIRCLE
  5
445
  8
DATA
  6
CONTINUOUS
 62
     7
 10
-600.0
 20
159.5000000000002
 30
0.0
 40
3.5
  0
ARC
  5
446
  8
DATA
  6
CONTINUOUS
 62
     7
 10
-600.0
 20
159.5000000000004
 30
0.0
 40
9.8795681063124903
 50
180.0
 51
0.0
  0
LINE
  5
447
  8
DATA
  6
CONTINUOUS
 62
     7
 10
-632.0
 20
170.0
 30
0.0
 11
-567.99999999999966
 21
170.0
 31
0.0
  0
LINE
  5
448
  8
DATA
  6
CONTINUOUS
 62
     7
 10
-635.0
 20
300.00000000000028
 30
0.0
 11
-565.0
 21
300.00000000000028
 31
0.0
  0
LINE
  5
449
  8
DATA
  6
CONTINUOUS
 62
     7
 10
-608.75
 20
294.00000000000068
 30
0.0
 11
-591.24999999999955
 21
294.00000000000068
 31
0.0
  0
ARC
  5
44A
  8
DATA
  6
CONTINUOUS
 62
     7
 10
-629.53826909813677
 20
297.91132975850019
 30
0.0
 40
4.9999999999998943
 50
190.3048464687669
 51
245.50762136313261
  0
LINE
  5
44B
  8
DATA
  6
CONTINUOUS
 62
     7
 10
-635.0
 20
300.00000000000028
 30
0.0
 11
-634.45761864863596
 21
297.01690256750021
 31
0.0
  0
ARC
  5
44C
  8
DATA
  6
CONTINUOUS
 62
     7
 10
-570.46173090186369
 20
297.91132975849968
 30
0.0
 40
5.0000000000000941
 50
294.49237863686932
 51
349.69515353123359
  0
LINE
  5
44D
  8
DATA
  6
CONTINUOUS
 62
     7
 10
-565.54238135136336
 20
297.01690256749959
 30
0.0
 11
-565.0
 21
300.00000000000028
 31
0.0
  0
LINE
  5
44E
  8
DATA
  6
CONTINUOUS
 62
     7
 10
-609.75000000000045
 20
273.00000000000068
 30
0.0
 11
-590.25000000000057
 21
273.00000000000068
 31
0.0
  0
LINE
  5
44F
  8
DATA
  6
CONTINUOUS
 62
     7
 10
-610.49999999999955
 20
284.50000000000068
 30
0.0
 11
-589.5
 21
284.50000000000068
 31
0.0
  0
LINE
  5
450
  8
DATA
  6
CONTINUOUS
 62
     7
 10
-609.75000000000045
 20
282.0000000000004
 30
0.0
 11
-590.25000000000057
 21
282.0000000000004
 31
0.0
  0
LINE
  5
451
  8
DATA
  6
CONTINUOUS
 62
     7
 10
-610.5
 20
287.22641096981738
 30
0.0
 11
-610.5
 21
284.50000000000068
 31
0.0
  0
LINE
  5
452
  8
DATA
  6
CONTINUOUS
 62
     7
 10
-609.75000000000045
 20
273.00000000000068
 30
0.0
 11
-609.75000000000045
 21
282.0000000000004
 31
0.0
  0
LINE
  5
453
  8
DATA
  6
CONTINUOUS
 62
     7
 10
-609.49999999999989
 20
282.0000000000004
 30
0.0
 11
-609.49999999999989
 21
284.50000000000068
 31
0.0
  0
LINE
  5
454
  8
DATA
  6
CONTINUOUS
 62
     7
 10
-604.875
 20
273.00000000000068
 30
0.0
 11
-604.875
 21
282.0000000000004
 31
0.0
  0
LINE
  5
455
  8
DATA
  6
CONTINUOUS
 62
     7
 10
-595.12499999999989
 20
273.00000000000068
 30
0.0
 11
-595.12499999999989
 21
282.0000000000004
 31
0.0
  0
LINE
  5
456
  8
DATA
  6
CONTINUOUS
 62
     7
 10
-590.5
 20
282.0000000000004
 30
0.0
 11
-590.5
 21
284.50000000000068
 31
0.0
  0
LINE
  5
457
  8
DATA
  6
CONTINUOUS
 62
     7
 10
-589.5
 20
284.50000000000068
 30
0.0
 11
-589.5
 21
287.22641096981738
 31
0.0
  0
LINE
  5
458
  8
DATA
  6
CONTINUOUS
 62
     7
 10
-590.25000000000057
 20
273.00000000000028
 30
0.0
 11
-590.25000000000057
 21
282.0000000000004
 31
0.0
  0
ARC
  5
459
  8
DATA
  6
CONTINUOUS
 62
     7
 10
-600.0
 20
362.75000000000148
 30
0.0
 40
76.250000000000711
 50
245.5076213631325
 51
294.49237863686722
  0
LINE
  5
45A
  8
DATA
  6
CONTINUOUS
 62
     7
 10
-608.75
 20
287.00371296228542
 30
0.0
 11
-608.75
 21
294.00000000000068
 31
0.0
  0
LINE
  5
45B
  8
DATA
  6
CONTINUOUS
 62
     7
 10
-591.24999999999955
 20
287.00371296228542
 30
0.0
 11
-591.24999999999955
 21
294.00000000000068
 31
0.0
  0
ARC
  5
45C
  8
DATA
  6
CONTINUOUS
 62
     7
 10
-512.15000000000009
 20
125.0
 30
0.0
 40
17.250000000000071
 50
18.59282254942736
 51
341.40717745057339
  0
LINE
  5
45D
  8
DATA
  6
CONTINUOUS
 62
     7
 10
-495.80030581325752
 20
130.5
 30
0.0
 11
-495.80030581325752
 21
119.5
 31
0.0
  0
LINE
  5
45E
  8
DATA
  6
CONTINUOUS
 62
     7
 10
-452.0
 20
134.5
 30
0.0
 11
-449.5
 21
134.5
 31
0.0
  0
LINE
  5
45F
  8
DATA
  6
CONTINUOUS
 62
     7
 10
-452.0
 20
120.0
 30
0.0
 11
-449.5
 21
120.0
 31
0.0
  0
LINE
  5
460
  8
DATA
  6
CONTINUOUS
 62
     7
 10
-452.0
 20
115.5000000000004
 30
0.0
 11
-449.4999999999996
 21
115.5000000000004
 31
0.0
  0
LINE
  5
461
  8
DATA
  6
CONTINUOUS
 62
     7
 10
-461.0
 20
125.0
 30
0.0
 11
-452.0
 21
125.0
 31
0.0
  0
LINE
  5
462
  8
DATA
  6
CONTINUOUS
 62
     7
 10
-461.0
 20
133.4437476868984
 30
0.0
 11
-452.0
 21
133.4437476868984
 31
0.0
  0
LINE
  5
463
  8
DATA
  6
CONTINUOUS
 62
     7
 10
-461.0
 20
116.55625231310221
 30
0.0
 11
-452.0
 21
116.55625231310221
 31
0.0
  0
LINE
  5
464
  8
DATA
  6
CONTINUOUS
 62
     7
 10
-461.0
 20
133.4437476868984
 30
0.0
 11
-461.0
 21
116.55625231310221
 31
0.0
  0
LINE
  5
465
  8
DATA
  6
CONTINUOUS
 62
     7
 10
-452.0
 20
134.5
 30
0.0
 11
-452.0
 21
115.5000000000004
 31
0.0
  0
LINE
  5
466
  8
DATA
  6
CONTINUOUS
 62
     7
 10
-434.0
 20
170.0
 30
0.0
 11
-434.0
 21
80.000000000000213
 31
0.0
  0
LINE
  5
467
  8
DATA
  6
CONTINUOUS
 62
     7
 10
-439.5
 20
170.0
 30
0.0
 11
-439.5
 21
80.000000000000213
 31
0.0
  0
LINE
  5
468
  8
DATA
  6
CONTINUOUS
 62
     7
 10
-447.5
 20
170.0
 30
0.0
 11
-447.5
 21
135.5000000000004
 31
0.0
  0
LINE
  5
469
  8
DATA
  6
CONTINUOUS
 62
     7
 10
-447.5
 20
114.5000000000007
 30
0.0
 11
-447.5
 21
80.000000000000213
 31
0.0
  0
LINE
  5
46A
  8
DATA
  6
CONTINUOUS
 62
     7
 10
-447.5
 20
80.000000000000213
 30
0.0
 11
-434.0
 21
80.000000000000213
 31
0.0
  0
LINE
  5
46B
  8
DATA
  6
CONTINUOUS
 62
     7
 10
-447.36712570717128
 20
134.0
 30
0.0
 11
-439.5
 21
134.0
 31
0.0
  0
LINE
  5
46C
  8
DATA
  6
CONTINUOUS
 62
     7
 10
-447.36712570717128
 20
116.0
 30
0.0
 11
-439.5
 21
116.0
 31
0.0
  0
LINE
  5
46D
  8
DATA
  6
CONTINUOUS
 62
     7
 10
-447.5
 20
135.5000000000004
 30
0.0
 11
-449.5
 21
135.5000000000004
 31
0.0
  0
LINE
  5
46E
  8
DATA
  6
CONTINUOUS
 62
     7
 10
-449.4999999999996
 20
114.5000000000007
 30
0.0
 11
-447.5
 21
114.5000000000007
 31
0.0
  0
LINE
  5
46F
  8
DATA
  6
CONTINUOUS
 62
     7
 10
-449.5
 20
135.5
 30
0.0
 11
-449.5
 21
114.5000000000007
 31
0.0
  0
ARC
  5
470
  8
DATA
  6
CONTINUOUS
 62
     7
 10
-557.50000000002137
 20
124.9999999999998
 30
0.0
 40
110.5000000000217
 50
354.54737801218891
 51
5.4526219878118241
  0
LINE
  5
471
  8
DATA
  6
CONTINUOUS
 62
     7
 10
-447.5
 20
170.0
 30
0.0
 11
-434.0
 21
170.0
 31
0.0
  0
LINE
  5
472
  8
DATA
  6
CONTINUOUS
 62
     7
 10
-317.5
 20
167.0000000000002
 30
0.0
 11
-317.5
 21
83.000000000000213
 31
0.0
  0
LINE
  5
473
  8
DATA
  6
CONTINUOUS
 62
     7
 10
-320.0
 20
164.75695975450211
 30
0.0
 11
-320.0
 21
85.243040245497923
 31
0.0
  0
LINE
  5
474
  8
DATA
  6
CONTINUOUS
 62
     7
 10
-383.96615312498528
 20
167.5000000000004
 30
0.0
 11
-358.99392195633578
 21
135.38708224791841
 31
0.0
  0
LINE
  5
475
  8
DATA
  6
CONTINUOUS
 62
     7
 10
-385.0
 20
164.75695975450211
 30
0.0
 11
-360.96743599541782
 21
133.85240236678749
 31
0.0
  0
LINE
  5
476
  8
DATA
  6
CONTINUOUS
 62
     7
 10
-387.5
 20
167.0000000000002
 30
0.0
 11
-387.5
 21
83.000000000000213
 31
0.0
  0
LINE
  5
477
  8
DATA
  6
CONTINUOUS
 62
     7
 10
-385.0
 20
164.75695975450211
 30
0.0
 11
-385.0
 21
85.243040245497923
 31
0.0
  0
LINE
  5
478
  8
DATA
  6
CONTINUOUS
 62
     7
 10
-321.0338468750146
 20
167.5000000000004
 30
0.0
 11
-346.00607804366382
 21
135.38708224791841
 31
0.0
  0
LINE
  5
479
  8
DATA
  6
CONTINUOUS
 62
     7
 10
-320.0
 20
164.75695975450211
 30
0.0
 11
-344.03256400458258
 21
133.85240236678749
 31
0.0
  0
LINE
  5
47A
  8
DATA
  6
CONTINUOUS
 62
     7
 10
-340.25
 20
90.500000000000213
 30
0.0
 11
-340.25
 21
82.500000000000213
 31
0.0
  0
ARC
  5
47B
  8
DATA
  6
CONTINUOUS
 62
     7
 10
-325.30487804878021
 20
125.0000000000009
 30
0.0
 40
12.44512195122053
 50
100.1592157200317
 51
259.84078427996832
  0
CIRCLE
  5
47C
  8
DATA
  6
CONTINUOUS
 62
     7
 10
-327.5000000000004
 20
125.0
 30
0.0
 40
3.6000000000003629
  0
ARC
  5
47D
  8
DATA
  6
CONTINUOUS
 62
     7
 10
-352.5
 20
125.0
 30
0.0
 40
14.999999999999689
 50
7.0452700079041923
 51
47.349808152800271
  0
LINE
  5
47E
  8
DATA
  6
CONTINUOUS
 62
     7
 10
-327.5000000000004
 20
137.2500000000002
 30
0.0
 11
-320.0
 21
137.2500000000002
 31
0.0
  0
ARC
  5
47F
  8
DATA
  6
CONTINUOUS
 62
     7
 10
-352.5
 20
125.0
 30
0.0
 40
14.999999999999741
 50
312.6501918471983
 51
352.95472999210023
  0
LINE
  5
480
  8
DATA
  6
CONTINUOUS
 62
     7
 10
-327.5000000000004
 20
112.7500000000002
 30
0.0
 11
-320.0
 21
112.7500000000002
 31
0.0
  0
LINE
  5
481
  8
DATA
  6
CONTINUOUS
 62
     7
 10
-358.99392195633578
 20
114.6129177520817
 30
0.0
 11
-383.96615312498568
 21
82.499999999999545
 31
0.0
  0
LINE
  5
482
  8
DATA
  6
CONTINUOUS
 62
     7
 10
-360.96743599541782
 20
116.1475976332126
 30
0.0
 11
-385.0
 21
85.243040245497923
 31
0.0
  0
LINE
  5
483
  8
DATA
  6
CONTINUOUS
 62
     7
 10
-364.75000000000051
 20
90.500000000000213
 30
0.0
 11
-364.75000000000051
 21
82.500000000000213
 31
0.0
  0
ARC
  5
484
  8
DATA
  6
CONTINUOUS
 62
     7
 10
-384.50000000000051
 20
83.000000000000213
 30
0.0
 40
3.0
 50
180.0
 51
270.0
  0
CIRCLE
  5
485
  8
DATA
  6
CONTINUOUS
 62
     7
 10
-377.50000000000051
 20
125.0
 30
0.0
 40
3.5999999999999082
  0
LINE
  5
486
  8
DATA
  6
CONTINUOUS
 62
     7
 10
-385.0
 20
137.2500000000002
 30
0.0
 11
-377.50000000000051
 21
137.2500000000002
 31
0.0
  0
LINE
  5
487
  8
DATA
  6
CONTINUOUS
 62
     7
 10
-385.0
 20
112.7500000000002
 30
0.0
 11
-377.50000000000051
 21
112.7500000000002
 31
0.0
  0
ARC
  5
488
  8
DATA
  6
CONTINUOUS
 62
     7
 10
-379.69512195122019
 20
125.0000000000009
 30
0.0
 40
12.44512195122045
 50
280.15921572002958
 51
79.84078427996819
  0
ARC
  5
489
  8
DATA
  6
CONTINUOUS
 62
     7
 10
-352.5
 20
125.0
 30
0.0
 40
15.00000000000005
 50
132.65019184719969
 51
172.95472999209599
  0
ARC
  5
48A
  8
DATA
  6
CONTINUOUS
 62
     7
 10
-352.5
 20
125.0
 30
0.0
 40
15.0
 50
187.04527000789969
 51
227.34980815280039
  0
CIRCLE
  5
48B
  8
DATA
  6
CONTINUOUS
 62
     7
 10
-352.5
 20
90.500000000000213
 30
0.0
 40
3.5999999999999082
  0
ARC
  5
48C
  8
DATA
  6
CONTINUOUS
 62
     7
 10
-352.5
 20
125.0
 30
0.0
 40
14.99999999999975
 50
56.910191847199783
 51
123.08980815280169
  0
CIRCLE
  5
48D
  8
DATA
  6
CONTINUOUS
 62
     7
 10
-352.5
 20
125.0
 30
0.0
 40
4.75
  0
LINE
  5
48E
  8
DATA
  6
CONTINUOUS
 62
     7
 10
-352.5
 20
134.0
 30
0.0
 11
-360.29422863406029
 21
129.5000000000002
 31
0.0
  0
LINE
  5
48F
  8
DATA
  6
CONTINUOUS
 62
     7
 10
-360.29422863406029
 20
120.5000000000004
 30
0.0
 11
-352.5
 21
116.0
 31
0.0
  0
ARC
  5
490
  8
DATA
  6
CONTINUOUS
 62
     7
 10
-352.5
 20
125.0
 30
0.0
 40
15.00000000000019
 50
236.9101918471988
 51
303.08980815279972
  0
LINE
  5
491
  8
DATA
  6
CONTINUOUS
 62
     7
 10
-360.29422863406029
 20
129.5000000000002
 30
0.0
 11
-360.29422863406029
 21
120.5000000000004
 31
0.0
  0
LINE
  5
492
  8
DATA
  6
CONTINUOUS
 62
     7
 10
-344.70577136594011
 20
120.5000000000004
 30
0.0
 11
-344.70577136594011
 21
129.5000000000002
 31
0.0
  0
LINE
  5
493
  8
DATA
  6
CONTINUOUS
 62
     7
 10
-344.70577136594011
 20
129.5000000000002
 30
0.0
 11
-352.5
 21
134.0
 31
0.0
  0
LINE
  5
494
  8
DATA
  6
CONTINUOUS
 62
     7
 10
-352.5
 20
116.0
 30
0.0
 11
-344.70577136594011
 21
120.5000000000004
 31
0.0
  0
ARC
  5
495
  8
DATA
  6
CONTINUOUS
 62
     7
 10
-352.49999999999909
 20
88.304878048780211
 30
0.0
 40
12.44512195122053
 50
10.159215720031719
 51
169.84078427997031
  0
LINE
  5
496
  8
DATA
  6
CONTINUOUS
 62
     7
 10
-384.50000000000051
 20
80.000000000000213
 30
0.0
 11
-320.5
 21
80.000000000000213
 31
0.0
  0
LINE
  5
497
  8
DATA
  6
CONTINUOUS
 62
     7
 10
-383.96615312498528
 20
82.500000000000213
 30
0.0
 11
-321.03384687501512
 21
82.500000000000213
 31
0.0
  0
CIRCLE
  5
498
  8
DATA
  6
CONTINUOUS
 62
     7
 10
-352.5
 20
125.0
 30
0.0
 40
12.25
  0
LINE
  5
499
  8
DATA
  6
CONTINUOUS
 62
     7
 10
-346.00607804366382
 20
114.6129177520817
 30
0.0
 11
-321.03384687501512
 21
82.499999999999545
 31
0.0
  0
LINE
  5
49A
  8
DATA
  6
CONTINUOUS
 62
     7
 10
-344.03256400458258
 20
116.1475976332126
 30
0.0
 11
-320.0
 21
85.243040245497923
 31
0.0
  0
ARC
  5
49B
  8
DATA
  6
CONTINUOUS
 62
     7
 10
-320.5
 20
83.000000000000213
 30
0.0
 40
3.0
 50
270.0
 51
0.0
  0
LINE
  5
49C
  8
DATA
  6
CONTINUOUS
 62
     7
 10
-340.25
 20
167.5000000000004
 30
0.0
 11
-340.25
 21
159.5000000000002
 31
0.0
  0
ARC
  5
49D
  8
DATA
  6
CONTINUOUS
 62
     7
 10
-384.50000000000051
 20
167.0000000000002
 30
0.0
 40
3.0
 50
90.0
 51
180.0
  0
LINE
  5
49E
  8
DATA
  6
CONTINUOUS
 62
     7
 10
-364.75000000000051
 20
167.5000000000004
 30
0.0
 11
-364.75000000000051
 21
159.5000000000002
 31
0.0
  0
CIRCLE
  5
49F
  8
DATA
  6
CONTINUOUS
 62
     7
 10
-352.5
 20
159.5000000000002
 30
0.0
 40
3.5999999999999082
  0
LINE
  5
4A0
  8
DATA
  6
CONTINUOUS
 62
     7
 10
-320.5
 20
170.0000000000002
 30
0.0
 11
-384.50000000000051
 21
170.0
 31
0.0
  0
LINE
  5
4A1
  8
DATA
  6
CONTINUOUS
 62
     7
 10
-383.96615312498528
 20
167.5000000000002
 30
0.0
 11
-321.03384687501512
 21
167.5000000000002
 31
0.0
  0
ARC
  5
4A2
  8
DATA
  6
CONTINUOUS
 62
     7
 10
-352.49999999999909
 20
161.69512195122019
 30
0.0
 40
12.44512195122045
 50
190.15921572002969
 51
349.84078427996832
  0
ARC
  5
4A3
  8
DATA
  6
CONTINUOUS
 62
     7
 10
-320.5
 20
167.0000000000002
 30
0.0
 40
3.0
 50
0.0
 51
90.0
  0
TEXT
  5
4A4
  8
DATA
 62
     7
 10
-687.64229283707868
 20
-36.430000000000007
 30
0.0
 40
24.4326171875
  1
Invisiball取付金具(壁用)
 41
0.8
 11
-687.64229283707868
 21
-11.99738281250001
 31
0.0
 73
     3
  0
ARC
  5
4A5
  8
DATA
  6
CONTINUOUS
 62
     7
 10
-556.17730110917682
 20
-705.98187892454405
 30
0.0
 40
0.3187831148184466
 50
307.64190249757769
 51
354.26701928940832
  0
LINE
  5
4A6
  8
DATA
  6
CONTINUOUS
 62
     7
 10
-564.36563247275001
 20
-700.9583729697498
 30
0.0
 11
-562.87117247275
 21
-697.39749296974969
 31
0.0
  0
LINE
  5
4A7
  8
DATA
  6
CONTINUOUS
 62
     7
 10
-564.36563247275001
 20
-700.9583729697498
 30
0.0
 11
-565.84165247274996
 21
-697.39749296974969
 31
0.0
  0
LINE
  5
4A8
  8
DATA
  6
CONTINUOUS
 62
     7
 10
-553.03723247275002
 20
-707.39749296974981
 30
0.0
 11
-553.03723247275002
 21
-697.39749296974969
 31
0.0
  0
LINE
  5
4A9
  8
DATA
  6
CONTINUOUS
 62
     7
 10
-551.11841247275004
 20
-697.39749296974969
 30
0.0
 11
-551.11841247275004
 21
-705.86613296974986
 31
0.0
  0
LINE
  5
4AA
  8
DATA
  6
CONTINUOUS
 62
     7
 10
-562.17006247275003
 20
-697.39749296974969
 30
0.0
 11
-562.17006247275003
 21
-705.86613296974986
 31
0.0
  0
LINE
  5
4AB
  8
DATA
  6
CONTINUOUS
 62
     7
 10
-560.32504247275006
 20
-697.39749296974969
 30
0.0
 11
-560.32504247275006
 21
-705.86613296974986
 31
0.0
  0
LINE
  5
4AC
  8
DATA
  6
CONTINUOUS
 62
     7
 10
-559.36563247275001
 20
-697.39749296974969
 30
0.0
 11
-559.36563247275001
 21
-707.39749296974981
 31
0.0
  0
LINE
  5
4AD
  8
DATA
  6
CONTINUOUS
 62
     7
 10
-557.68666247274996
 20
-698.33844296974985
 30
0.0
 11
-557.68666247274996
 21
-701.54878296974971
 31
0.0
  0
LINE
  5
4AE
  8
DATA
  6
CONTINUOUS
 62
     7
 10
-554.08808247274999
 20
-701.36302296974975
 30
0.0
 11
-554.08808247274999
 21
-699.02111296974988
 31
0.0
  0
LINE
  5
4AF
  8
DATA
  6
CONTINUOUS
 62
     7
 10
-555.86011247274996
 20
-698.78125296974986
 30
0.0
 11
-555.86011247274996
 21
-701.10598296974968
 31
0.0
  0
ARC
  5
4B0
  8
DATA
  6
CONTINUOUS
 62
     7
 10
-562.54030247275
 20
-704.82969296974977
 30
0.0
 40
2.5788534251679249
 50
264.69085622153381
 51
323.99119915424109
  0
LINE
  5
4B1
  8
DATA
  6
CONTINUOUS
 62
     7
 10
-563.57227247274989
 20
-704.26095296974972
 30
0.0
 11
-563.57227247274989
 21
-705.86611296974968
 31
0.0
  0
LINE
  5
4B2
  8
DATA
  6
CONTINUOUS
 62
     7
 10
-563.57227247274989
 20
-704.26095296974972
 30
0.0
 11
-565.23279247275002
 21
-704.26095296974972
 31
0.0
  0
LINE
  5
4B3
  8
DATA
  6
CONTINUOUS
 62
     7
 10
-565.23279247275002
 20
-704.26095296974972
 30
0.0
 11
-565.23279247275002
 21
-705.86611296974968
 31
0.0
  0
ARC
  5
4B4
  8
DATA
  6
CONTINUOUS
 62
     7
 10
-562.86765247275002
 20
-705.88775296974973
 30
0.0
 40
0.6979288262422863
 50
269.71184879275029
 51
1.775987005691491
  0
ARC
  5
4B5
  8
DATA
  6
CONTINUOUS
 62
     7
 10
-562.87468247275001
 20
-705.88775296974973
 30
0.0
 40
0.6979252574595547
 50
178.22401299431701
 51
270.28815120724312
  0
ARC
  5
4B6
  8
DATA
  6
CONTINUOUS
 62
     7
 10
-563.01753247275008
 20
-704.82969296974977
 30
0.0
 40
2.5788492369466298
 50
216.00880084575959
 51
275.30914377846648
  0
ARC
  5
4B7
  8
DATA
  6
CONTINUOUS
 62
     7
 10
-564.06735247275003
 20
-705.80958296974973
 30
0.0
 40
1.1668002081762019
 50
182.7769954499912
 51
207.35960666714649
  0
CIRCLE
  5
4B8
  8
DATA
  6
CONTINUOUS
 62
     7
 10
-564.26415247274997
 20
-702.34214296974972
 30
0.0
 40
0.9501800000000457
  0
LINE
  5
4B9
  8
DATA
  6
CONTINUOUS
 62
     7
 10
-548.03723247275002
 20
-707.39748296974972
 30
0.0
 11
-553.03723247275002
 21
-707.39748296974972
 31
0.0
  0
LINE
  5
4BA
  8
DATA
  6
CONTINUOUS
 62
     7
 10
-548.03723247275002
 20
-707.39748296974972
 30
0.0
 11
-548.03723247275002
 21
-704.26094296974975
 31
0.0
  0
LINE
  5
4BB
  8
DATA
  6
CONTINUOUS
 62
     7
 10
-548.03723247275002
 20
-704.26095296974972
 30
0.0
 11
-549.71619247274998
 21
-704.26095296974972
 31
0.0
  0
LINE
  5
4BC
  8
DATA
  6
CONTINUOUS
 62
     7
 10
-549.71619247274998
 20
-704.26095296974972
 30
0.0
 11
-549.71619247274998
 21
-705.86611296974968
 31
0.0
  0
LINE
  5
4BD
  8
DATA
  6
CONTINUOUS
 62
     7
 10
-559.36563247275001
 20
-707.39748296974972
 30
0.0
 11
-555.86011247274996
 21
-707.39747296974986
 31
0.0
  0
LINE
  5
4BE
  8
DATA
  6
CONTINUOUS
 62
     7
 10
-557.68667247275005
 20
-706.45652296974981
 30
0.0
 11
-556.78261247275009
 21
-706.45652296974981
 31
0.0
  0
LINE
  5
4BF
  8
DATA
  6
CONTINUOUS
 62
     7
 10
-557.68666247274996
 20
-706.45652296974981
 30
0.0
 11
-557.68666247274996
 21
-702.50818296974978
 31
0.0
  0
LINE
  5
4C0
  8
DATA
  6
CONTINUOUS
 62
     7
 10
-557.68667247275005
 20
-702.50818296974978
 30
0.0
 11
-556.78261247275009
 21
-702.50818296974978
 31
0.0
  0
LINE
  5
4C1
  8
DATA
  6
CONTINUOUS
 62
     7
 10
-555.86011247274996
 20
-706.01372296974967
 30
0.0
 11
-555.86011247274996
 21
-702.9509829697497
 31
0.0
  0
ARC
  5
4C2
  8
DATA
  6
CONTINUOUS
 62
     7
 10
-561.49048247275005
 20
-705.80958296974973
 30
0.0
 40
1.1667985478650531
 50
332.64039333285479
 51
357.2230045500055
  0
ARC
  5
4C3
  8
DATA
  6
CONTINUOUS
 62
     7
 10
-550.41379247274995
 20
-705.88775296974973
 30
0.0
 40
0.6979288262422863
 50
269.71184879275029
 51
1.775987005691491
  0
ARC
  5
4C4
  8
DATA
  6
CONTINUOUS
 62
     7
 10
-550.42081247274996
 20
-705.88775296974973
 30
0.0
 40
0.6979252574595547
 50
178.22401299431701
 51
270.28815120725238
  0
LINE
  5
4C5
  8
DATA
  6
CONTINUOUS
 62
     7
 10
-554.08889247274988
 20
-705.79231296974967
 30
0.0
 11
-554.08889247274988
 21
-703.13549296974975
 31
0.0
  0
LINE
  5
4C6
  8
DATA
  6
CONTINUOUS
 62
     7
 10
-557.68667247275005
 20
-701.54878296974971
 30
0.0
 11
-556.78261247275009
 21
-701.54878296974971
 31
0.0
  0
ARC
  5
4C7
  8
DATA
  6
CONTINUOUS
 62
     7
 10
-555.98723247274995
 20
-705.49911296974972
 30
0.0
 40
1.9026114117181401
 50
273.83098160911459
 51
351.13514730980211
  0
LINE
  5
4C8
  8
DATA
  6
CONTINUOUS
 62
     7
 10
-562.17006247275003
 20
-697.39749296974969
 30
0.0
 11
-560.32504247275006
 21
-697.39749296974969
 31
0.0
  0
LINE
  5
4C9
  8
DATA
  6
CONTINUOUS
 62
     7
 10
-565.84165247274996
 20
-697.39749296974969
 30
0.0
 11
-562.87117247275
 21
-697.39749296974969
 31
0.0
  0
LINE
  5
4CA
  8
DATA
  6
CONTINUOUS
 62
     7
 10
-553.03723247275002
 20
-697.39749296974969
 30
0.0
 11
-551.11841247275004
 21
-697.39749296974969
 31
0.0
  0
LINE
  5
4CB
  8
DATA
  6
CONTINUOUS
 62
     7
 10
-559.36563247275001
 20
-697.39749296974969
 30
0.0
 11
-555.84084234460329
 21
-697.39750106349038
 31
0.0
  0
LINE
  5
4CC
  8
DATA
  6
CONTINUOUS
 62
     7
 10
-557.68667247275005
 20
-698.33845296974971
 30
0.0
 11
-556.78261247275009
 21
-698.33845296974971
 31
0.0
  0
ARC
  5
4CD
  8
DATA
  6
CONTINUOUS
 62
     7
 10
-555.96826247274987
 20
-699.29295296974976
 30
0.0
 40
1.899729932911512
 50
8.2269238590157432
 51
86.1541266921556
  0
ARC
  5
4CE
  8
DATA
  6
CONTINUOUS
 62
     7
 10
-556.77193701014676
 20
-704.70283500916275
 30
0.0
 40
1.753720453381721
 50
269.65121993761392
 51
282.82648280687249
  0
ARC
  5
4CF
  8
DATA
  6
CONTINUOUS
 62
     7
 10
-556.57496644528339
 20
-705.44427328097697
 30
0.0
 40
0.9874379036932177
 50
281.23310362266318
 51
306.86200889406479
  0
ARC
  5
4D0
  8
DATA
  6
CONTINUOUS
 62
     7
 10
-556.17730110917682
 20
-702.98282701495555
 30
0.0
 40
0.3187831148184176
 50
5.7329807106119457
 51
52.358097502422339
  0
ARC
  5
4D1
  8
DATA
  6
CONTINUOUS
 62
     7
 10
-556.77193701014676
 20
-704.26187093033673
 30
0.0
 40
1.7537204533817401
 50
77.173517193127452
 51
90.348780062386055
  0
ARC
  5
4D2
  8
DATA
  6
CONTINUOUS
 62
     7
 10
-556.57496644528339
 20
-703.52043265852285
 30
0.0
 40
0.9874379036932557
 50
53.1379911059352
 51
78.76689637733682
  0
ARC
  5
4D3
  8
DATA
  6
CONTINUOUS
 62
     7
 10
-555.05657247274996
 20
-703.20090296974979
 30
0.0
 40
0.9698881639138393
 50
3.8670063598174358
 51
88.361634567897383
  0
ARC
  5
4D4
  8
DATA
  6
CONTINUOUS
 62
     7
 10
-555.05746247274999
 20
-701.26098296974976
 30
0.0
 40
0.9708519399475536
 50
271.68928210464452
 51
356.07828298265798
  0
ARC
  5
4D5
  8
DATA
  6
CONTINUOUS
 62
     7
 10
-556.17730110917682
 20
-701.07413892454394
 30
0.0
 40
0.3187831148185367
 50
307.64190249756518
 51
354.26701928939002
  0
ARC
  5
4D6
  8
DATA
  6
CONTINUOUS
 62
     7
 10
-556.77193701014676
 20
-699.79509500916276
 30
0.0
 40
1.753720453381721
 50
269.65121993761392
 51
282.82648280687249
  0
ARC
  5
4D7
  8
DATA
  6
CONTINUOUS
 62
     7
 10
-556.57496644528339
 20
-700.53653328097698
 30
0.0
 40
0.9874379036932177
 50
281.23310362266318
 51
306.86200889406479
  0
ARC
  5
4D8
  8
DATA
  6
CONTINUOUS
 62
     7
 10
-556.17730110917682
 20
-698.8130970149557
 30
0.0
 40
0.3187831148184176
 50
5.7329807106119457
 51
52.358097502438532
  0
ARC
  5
4D9
  8
DATA
  6
CONTINUOUS
 62
     7
 10
-556.77193701014676
 20
-700.09214093033677
 30
0.0
 40
1.7537204533817401
 50
77.173517193127452
 51
90.348780062386055
  0
ARC
  5
4DA
  8
DATA
  6
CONTINUOUS
 62
     7
 10
-556.57496644528339
 20
-699.35070265852255
 30
0.0
 40
0.9874379036932557
 50
53.1379911059352
 51
78.76689637733682
  0
TEXT
  5
4DB
  8
DATA
 62
     7
 10
599.99999999999989
 20
-1016.904765
 30
0.0
 40
24.4326171875
  1
CONTROL 25T / 25T-WH
 41
0.8
 11
599.99999999999989
 21
-992.4721478125
 31
0.0
 73
     3
  0
TEXT
  5
4DC
  8
DATA
 62
     7
 10
525.0
 20
-976.14042611111086
 30
0.0
 40
13.57367621527778
  1
2WAYスピーカ(Control 25の30Wオートトランス内蔵モデル)
 41
0.8
 11
525.0
 21
-962.56674989583303
 31
0.0
 73
     3
  0
LINE
  5
4DD
  8
DATA
  6
CONTINUOUS
 62
     7
 10
550.0
 20
-250.00000000000091
 30
0.0
 11
900.0
 21
-250.00000000000091
 31
0.0
  0
TEXT
  5
4DE
  8
DATA
 62
     7
 10
570.27463807136257
 20
-239.36914062500091
 30
0.0
 40
23.972702026367191
  1
コネクターパネル拡大図
 41
0.8
 11
570.27463807136257
 21
-215.39643859863369
 31
0.0
 73
     3
  0
LINE
  5
4DF
  8
DATA
  6
CONTINUOUS
 62
     7
 10
772.49999881250051
 20
-566.66665937500102
 30
0.0
 11
772.49999881250096
 21
-608.33332500000085
 31
0.0
  0
LINE
  5
4E0
  8
DATA
  6
CONTINUOUS
 62
     7
 10
677.50000118749995
 20
-566.66665937500102
 30
0.0
 11
677.50000118749995
 21
-608.33332500000085
 31
0.0
  0
LINE
  5
4E1
  8
DATA
  6
CONTINUOUS
 62
     7
 10
776.66649870833851
 20
-591.66665875000069
 30
0.0
 11
772.49999881250051
 21
-566.66665937500102
 31
0.0
  0
LINE
  5
4E2
  8
DATA
  6
CONTINUOUS
 62
     7
 10
768.33349891666319
 20
-591.66665875000069
 30
0.0
 11
772.49999881250051
 21
-566.66665937500102
 31
0.0
  0
LINE
  5
4E3
  8
DATA
  6
CONTINUOUS
 62
     7
 10
681.66650108333795
 20
-591.66665875000069
 30
0.0
 11
677.50000118749995
 21
-566.66665937500102
 31
0.0
  0
LINE
  5
4E4
  8
DATA
  6
CONTINUOUS
 62
     7
 10
673.33350129166331
 20
-591.66665875000069
 30
0.0
 11
677.50000118749995
 21
-566.66665937500102
 31
0.0
  0
TEXT
  5
4E5
  8
DATA
 62
     7
 10
744.63529812321121
 20
-652.01415073089697
 30
0.0
 40
25.832652399837968
  1
RED
 41
0.8
 11
744.63529812321121
 21
-626.18149833105895
 31
0.0
 73
     3
  0
TEXT
  5
4E6
  8
DATA
 62
     7
 10
651.49294721083015
 20
-652.01415073089697
 30
0.0
 40
25.832652399837968
  1
BLK
 41
0.8
 11
651.49294721083015
 21
-626.18149833105895
 31
0.0
 73
     3
  0
CIRCLE
  5
4E7
  8
DATA
  6
CONTINUOUS
 62
     7
 10
835.00000000000034
 20
-526.25000000000011
 30
0.0
 40
13.75
  0
ARC
  5
4E8
  8
DATA
  6
CONTINUOUS
 62
     7
 10
845.0
 20
-537.49999999999977
 30
0.0
 40
20.0
 50
270.0
 51
0.0
  0
CIRCLE
  5
4E9
  8
DATA
  6
CONTINUOUS
 62
     7
 10
835.00000000000034
 20
-306.25000000000063
 30
0.0
 40
13.75
  0
ARC
  5
4EA
  8
DATA
  6
CONTINUOUS
 62
     7
 10
845.0
 20
-295.00000000000028
 30
0.0
 40
20.0
 50
0.0
 51
90.0
  0
CIRCLE
  5
4EB
  8
DATA
  6
CONTINUOUS
 62
     7
 10
772.49999999999955
 20
-526.24999999999955
 30
0.0
 40
12.5
  0
LINE
  5
4EC
  8
DATA
  6
CONTINUOUS
 62
     7
 10
615.0
 20
-536.25000000000011
 30
0.0
 11
615.0
 21
-516.24999999999955
 31
0.0
  0
CIRCLE
  5
4ED
  8
DATA
  6
CONTINUOUS
 62
     7
 10
615.0
 20
-526.25000000000011
 30
0.0
 40
13.75
  0
CIRCLE
  5
4EE
  8
DATA
  6
CONTINUOUS
 62
     7
 10
677.5
 20
-526.25000000000011
 30
0.0
 40
12.5
  0
LINE
  5
4EF
  8
DATA
  6
CONTINUOUS
 62
     7
 10
772.49999999999955
 20
-534.99999999999955
 30
0.0
 11
772.49999999999955
 21
-517.50000000000011
 31
0.0
  0
LINE
  5
4F0
  8
DATA
  6
CONTINUOUS
 62
     7
 10
835.00000000000034
 20
-536.25000000000011
 30
0.0
 11
835.00000000000034
 21
-516.24999999999955
 31
0.0
  0
LINE
  5
4F1
  8
DATA
  6
CONTINUOUS
 62
     7
 10
604.99999999999909
 20
-557.50000000000011
 30
0.0
 11
845.0
 21
-557.50000000000011
 31
0.0
  0
ARC
  5
4F2
  8
DATA
  6
CONTINUOUS
 62
     7
 10
604.99999999999909
 20
-537.49999999999977
 30
0.0
 40
20.0
 50
180.0
 51
270.0
  0
LINE
  5
4F3
  8
DATA
  6
CONTINUOUS
 62
     7
 10
811.24999999999909
 20
-373.75000000000051
 30
0.0
 11
733.75000000000034
 21
-373.75000000000051
 31
0.0
  0
LINE
  5
4F4
  8
DATA
  6
CONTINUOUS
 62
     7
 10
733.75000000000034
 20
-338.75000000000119
 30
0.0
 11
811.24999999999909
 21
-338.75000000000119
 31
0.0
  0
LINE
  5
4F5
  8
DATA
  6
CONTINUOUS
 62
     7
 10
743.75
 20
-431.2499999999996
 30
0.0
 11
801.24999999999989
 21
-431.2499999999996
 31
0.0
  0
LINE
  5
4F6
  8
DATA
  6
CONTINUOUS
 62
     7
 10
743.75
 20
-441.2500000000004
 30
0.0
 11
801.24999999999989
 21
-441.2499999999996
 31
0.0
  0
LINE
  5
4F7
  8
DATA
  6
CONTINUOUS
 62
     7
 10
743.75
 20
-448.75000000000068
 30
0.0
 11
801.24999999999989
 21
-448.74999999999977
 31
0.0
  0
LINE
  5
4F8
  8
DATA
  6
CONTINUOUS
 62
     7
 10
631.25
 20
-376.25000000000091
 30
0.0
 11
818.74999999999955
 21
-376.25000000000091
 31
0.0
  0
LINE
  5
4F9
  8
DATA
  6
CONTINUOUS
 62
     7
 10
631.25
 20
-336.25000000000068
 30
0.0
 11
818.74999999999955
 21
-336.25000000000068
 31
0.0
  0
LINE
  5
4FA
  8
DATA
  6
CONTINUOUS
 62
     7
 10
605.0
 20
-275.00000000000159
 30
0.0
 11
845.0
 21
-275.00000000000068
 31
0.0
  0
LINE
  5
4FB
  8
DATA
  6
CONTINUOUS
 62
     7
 10
631.25
 20
-466.24999999999972
 30
0.0
 11
818.74999999999955
 21
-466.24999999999972
 31
0.0
  0
LINE
  5
4FC
  8
DATA
  6
CONTINUOUS
 62
     7
 10
818.74999999999955
 20
-496.25
 30
0.0
 11
631.25
 21
-496.25
 31
0.0
  0
LINE
  5
4FD
  8
DATA
  6
CONTINUOUS
 62
     7
 10
782.49999999999955
 20
-366.25
 30
0.0
 11
762.4999999999992
 21
-366.25
 31
0.0
  0
LINE
  5
4FE
  8
DATA
  6
CONTINUOUS
 62
     7
 10
762.4999999999992
 20
-346.25000000000051
 30
0.0
 11
782.49999999999955
 21
-346.25000000000051
 31
0.0
  0
LINE
  5
4FF
  8
DATA
  6
CONTINUOUS
 62
     7
 10
763.75
 20
-526.24999999999955
 30
0.0
 11
781.25
 21
-526.24999999999955
 31
0.0
  0
LINE
  5
500
  8
DATA
  6
CONTINUOUS
 62
     7
 10
733.75000000000034
 20
-373.75000000000051
 30
0.0
 11
733.75000000000034
 21
-338.75000000000119
 31
0.0
  0
LINE
  5
501
  8
DATA
  6
CONTINUOUS
 62
     7
 10
762.4999999999992
 20
-366.25
 30
0.0
 11
762.4999999999992
 21
-346.25000000000051
 31
0.0
  0
LINE
  5
502
  8
DATA
  6
CONTINUOUS
 62
     7
 10
716.24999999999898
 20
-338.75000000000119
 30
0.0
 11
716.24999999999898
 21
-373.75000000000051
 31
0.0
  0
LINE
  5
503
  8
DATA
  6
CONTINUOUS
 62
     7
 10
687.49999999999909
 20
-346.25000000000051
 30
0.0
 11
687.49999999999909
 21
-366.25
 31
0.0
  0
TEXT
  5
504
  8
DATA
 62
     7
 10
685.68066010364601
 20
-493.18359375000023
 30
0.0
 40
24.799346923828121
  1
INPUT
 41
0.8
 11
685.68066010364601
 21
-468.3842468261721
 31
0.0
 73
     3
  0
LINE
  5
505
  8
DATA
  6
CONTINUOUS
 62
     7
 10
743.75
 20
-376.25000000000091
 30
0.0
 11
743.75000000000102
 21
-466.24999999999972
 31
0.0
  0
LINE
  5
506
  8
DATA
  6
CONTINUOUS
 62
     7
 10
706.24999999999955
 20
-466.24999999999972
 30
0.0
 11
706.24999999999955
 21
-376.25000000000091
 31
0.0
  0
LINE
  5
507
  8
DATA
  6
CONTINUOUS
 62
     7
 10
638.75
 20
-373.75000000000051
 30
0.0
 11
638.75
 21
-338.75000000000119
 31
0.0
  0
LINE
  5
508
  8
DATA
  6
CONTINUOUS
 62
     7
 10
667.49999999999807
 20
-366.25
 30
0.0
 11
667.49999999999807
 21
-346.25000000000051
 31
0.0
  0
LINE
  5
509
  8
DATA
  6
CONTINUOUS
 62
     7
 10
615.0
 20
-316.2500000000004
 30
0.0
 11
615.0
 21
-296.25000000000091
 31
0.0
  0
LINE
  5
50A
  8
DATA
  6
CONTINUOUS
 62
     7
 10
605.0
 20
-306.25000000000063
 30
0.0
 11
625.0
 21
-306.25000000000063
 31
0.0
  0
CIRCLE
  5
50B
  8
DATA
  6
CONTINUOUS
 62
     7
 10
615.0
 20
-306.25000000000063
 30
0.0
 40
13.75
  0
ARC
  5
50C
  8
DATA
  6
CONTINUOUS
 62
     7
 10
605.0
 20
-295.00000000000119
 30
0.0
 40
20.0
 50
90.0
 51
180.0
  0
LINE
  5
50D
  8
DATA
  6
CONTINUOUS
 62
     7
 10
605.0
 20
-526.25000000000011
 30
0.0
 11
625.0
 21
-526.25000000000011
 31
0.0
  0
LINE
  5
50E
  8
DATA
  6
CONTINUOUS
 62
     7
 10
648.75000000000057
 20
-376.25000000000091
 30
0.0
 11
648.75000000000057
 21
-466.24999999999972
 31
0.0
  0
LINE
  5
50F
  8
DATA
  6
CONTINUOUS
 62
     7
 10
631.25
 20
-496.25
 30
0.0
 11
631.25
 21
-336.25000000000068
 31
0.0
  0
LINE
  5
510
  8
DATA
  6
CONTINUOUS
 62
     7
 10
716.24999999999898
 20
-373.75000000000051
 30
0.0
 11
638.75
 21
-373.75000000000051
 31
0.0
  0
LINE
  5
511
  8
DATA
  6
CONTINUOUS
 62
     7
 10
638.75
 20
-338.75000000000119
 30
0.0
 11
716.24999999999898
 21
-338.75000000000119
 31
0.0
  0
LINE
  5
512
  8
DATA
  6
CONTINUOUS
 62
     7
 10
687.49999999999909
 20
-366.25
 30
0.0
 11
667.49999999999807
 21
-366.25
 31
0.0
  0
LINE
  5
513
  8
DATA
  6
CONTINUOUS
 62
     7
 10
667.49999999999807
 20
-346.25000000000051
 30
0.0
 11
687.49999999999909
 21
-346.25000000000051
 31
0.0
  0
LINE
  5
514
  8
DATA
  6
CONTINUOUS
 62
     7
 10
668.75000000000068
 20
-526.25000000000011
 30
0.0
 11
686.24999999999909
 21
-526.25000000000011
 31
0.0
  0
LINE
  5
515
  8
DATA
  6
CONTINUOUS
 62
     7
 10
648.75000000000057
 20
-431.2499999999996
 30
0.0
 11
706.24999999999955
 21
-431.2499999999996
 31
0.0
  0
LINE
  5
516
  8
DATA
  6
CONTINUOUS
 62
     7
 10
648.75000000000057
 20
-441.2500000000004
 30
0.0
 11
706.24999999999955
 21
-441.2499999999996
 31
0.0
  0
LINE
  5
517
  8
DATA
  6
CONTINUOUS
 62
     7
 10
648.75000000000057
 20
-448.75000000000068
 30
0.0
 11
706.24999999999955
 21
-448.74999999999977
 31
0.0
  0
LINE
  5
518
  8
DATA
  6
CONTINUOUS
 62
     7
 10
782.49999999999955
 20
-346.25000000000051
 30
0.0
 11
782.49999999999955
 21
-366.25
 31
0.0
  0
LINE
  5
519
  8
DATA
  6
CONTINUOUS
 62
     7
 10
835.00000000000034
 20
-316.2500000000004
 30
0.0
 11
835.00000000000034
 21
-296.25000000000091
 31
0.0
  0
LINE
  5
51A
  8
DATA
  6
CONTINUOUS
 62
     7
 10
825.00000000000102
 20
-306.25000000000063
 30
0.0
 11
845.00000000000023
 21
-306.25000000000063
 31
0.0
  0
LINE
  5
51B
  8
DATA
  6
CONTINUOUS
 62
     7
 10
811.24999999999909
 20
-338.75000000000119
 30
0.0
 11
811.24999999999909
 21
-373.75000000000051
 31
0.0
  0
LINE
  5
51C
  8
DATA
  6
CONTINUOUS
 62
     7
 10
825.00000000000102
 20
-526.25000000000011
 30
0.0
 11
845.00000000000023
 21
-526.25000000000011
 31
0.0
  0
LINE
  5
51D
  8
DATA
  6
CONTINUOUS
 62
     7
 10
818.74999999999955
 20
-336.25000000000068
 30
0.0
 11
818.74999999999955
 21
-496.25
 31
0.0
  0
LINE
  5
51E
  8
DATA
  6
CONTINUOUS
 62
     7
 10
801.2499999999992
 20
-466.24999999999972
 30
0.0
 11
801.2499999999992
 21
-376.25000000000091
 31
0.0
  0
LINE
  5
51F
  8
DATA
  6
CONTINUOUS
 62
     7
 10
584.9999999999992
 20
-537.49999999999977
 30
0.0
 11
585.00000000000068
 21
-295.00000000000119
 31
0.0
  0
LINE
  5
520
  8
DATA
  6
CONTINUOUS
 62
     7
 10
864.99999999999909
 20
-537.49999999999977
 30
0.0
 11
864.99999999999909
 21
-295.00000000000028
 31
0.0
  0
LINE
  5
521
  8
DATA
  6
CONTINUOUS
 62
     7
 10
175.00000000000011
 20
-616.2505187999999
 30
0.0
 11
175.00000000000011
 21
-848.4799999999999
 31
0.0
  0
LINE
  5
522
  8
DATA
  6
CONTINUOUS
 62
     7
 10
360.42000000000007
 20
-848.4799999999999
 30
0.0
 11
360.42000000000007
 21
-616.2505187999999
 31
0.0
  0
LINE
  5
523
  8
DATA
  6
CONTINUOUS
 62
     7
 10
317.05652955035168
 20
-627.41942002886606
 30
0.0
 11
317.05652955035168
 21
-837.31144694520435
 31
0.0
  0
LINE
  5
524
  8
DATA
  6
CONTINUOUS
 62
     7
 10
218.36347044964859
 20
-837.31144694520435
 30
0.0
 11
218.3634704496491
 21
-627.41942002886606
 31
0.0
  0
LINE
  5
525
  8
DATA
  6
CONTINUOUS
 62
     7
 10
239.71000000000009
 20
-684.31144694520447
 30
0.0
 11
239.71000000000009
 21
-635.81144694520481
 31
0.0
  0
LINE
  5
526
  8
DATA
  6
CONTINUOUS
 62
     7
 10
238.710000000001
 20
-684.31144694520447
 30
0.0
 11
238.71000000000009
 21
-635.81144694520435
 31
0.0
  0
LINE
  5
527
  8
DATA
  6
CONTINUOUS
 62
     7
 10
295.71000000000009
 20
-684.31144694520447
 30
0.0
 11
295.71000000000009
 21
-635.81144694520435
 31
0.0
  0
LINE
  5
528
  8
DATA
  6
CONTINUOUS
 62
     7
 10
296.7100000000006
 20
-684.31144694520447
 30
0.0
 11
296.71000000000009
 21
-635.81144694520435
 31
0.0
  0
LINE
  5
529
  8
DATA
  6
CONTINUOUS
 62
     7
 10
176.52000000000061
 20
-850.0
 30
0.0
 11
358.9000000000002
 21
-850.0
 31
0.0
  0
LINE
  5
52A
  8
DATA
  6
CONTINUOUS
 62
     7
 10
359.97480230740359
 20
-849.55480230740341
 30
0.0
 11
317.05652955035168
 21
-837.31144694520435
 31
0.0
  0
TEXT
  5
52B
  8
DATA
 62
     7
 10
281.2100000000006
 20
-695.47852687857562
 30
0.0
 40
2.4799346923828121
  1
DO NOT USE
 41
0.8
 11
281.2100000000006
 21
-692.99859218619281
 31
0.0
 73
     3
  0
TEXT
  5
52C
  8
DATA
 62
     7
 10
289.59182949804568
 20
-702.97257975770435
 30
0.0
 40
2.0666122436523442
  1
100 V LINE
 41
0.8
 11
289.59182949804568
 21
-700.90596751405201
 31
0.0
 73
     3
  0
TEXT
  5
52D
  8
DATA
 62
     7
 10
290.77755167526141
 20
-706.97257975770435
 30
0.0
 40
2.0666122436523442
  1
70 V LINE
 41
0.8
 11
290.77755167526141
 21
-704.90596751405212
 31
0.0
 73
     3
  0
TEXT
  5
52E
  8
DATA
 62
     7
 10
254.18262546403011
 20
-831.76925944520474
 30
0.0
 40
3.30657958984375
  1
PROFESSIONAL
 41
0.8
 11
254.18262546403011
 21
-828.46267985536099
 31
0.0
 73
     3
  0
LINE
  5
52F
  8
DATA
  6
CONTINUOUS
 62
     7
 10
175.44519769259671
 20
-849.55480230740341
 30
0.0
 11
218.3634704496491
 21
-837.31144694520435
 31
0.0
  0
ARC
  5
530
  8
DATA
  6
CONTINUOUS
 62
     7
 10
176.52000000000061
 20
-848.4799999999999
 30
0.0
 40
1.5199999999999809
 50
180.0
 51
270.0
  0
ARC
  5
531
  8
DATA
  6
CONTINUOUS
 62
     7
 10
233.2100000000006
 20
-697.31144694520481
 30
0.0
 40
7.0
 50
90.0
 51
180.0
  0
ARC
  5
532
  8
DATA
  6
CONTINUOUS
 62
     7
 10
302.21000000000112
 20
-697.31144694520481
 30
0.0
 40
7.0
 50
0.0
 51
90.0
  0
LINE
  5
533
  8
DATA
  6
CONTINUOUS
 62
     7
 10
262.2100000000006
 20
-694.28516750357585
 30
0.0
 11
265.8350000000006
 21
-700.56385168101315
 31
0.0
  0
LINE
  5
534
  8
DATA
  6
CONTINUOUS
 62
     7
 10
270.46000000000009
 20
-699.04830722439044
 30
0.0
 11
273.210000000001
 21
-694.28516750357585
 31
0.0
  0
TEXT
  5
535
  8
DATA
 62
     7
 10
249.0359395903308
 20
-695.47852687857562
 30
0.0
 40
2.4799346923828121
  1
15W
 41
0.8
 11
249.0359395903308
 21
-692.99859218619281
 31
0.0
 73
     3
  0
TEXT
  5
536
  8
DATA
 62
     7
 10
265.710000000001
 20
-695.50480632020447
 30
0.0
 40
2.4799346923828121
  1
30W
 41
0.8
 11
265.710000000001
 21
-693.02487162782165
 31
0.0
 73
     3
  0
LINE
  5
537
  8
DATA
  6
CONTINUOUS
 62
     7
 10
218.3634704496491
 20
-837.31144694520435
 30
0.0
 11
317.05652955035168
 21
-837.31144694520435
 31
0.0
  0
CIRCLE
  5
538
  8
DATA
  6
CONTINUOUS
 62
     7
 10
235.9600000000006
 20
-740.81144694520435
 30
0.0
 40
2.0
  0
LINE
  5
539
  8
DATA
  6
CONTINUOUS
 62
     7
 10
233.21000000000009
 20
-793.31144694520447
 30
0.0
 11
302.21000000000112
 21
-793.31144694520447
 31
0.0
  0
CIRCLE
  5
53A
  8
DATA
  6
CONTINUOUS
 62
     7
 10
231.46000000000009
 20
-808.31144694520447
 30
0.0
 40
10.0
  0
LINE
  5
53B
  8
DATA
  6
CONTINUOUS
 62
     7
 10
234.46000000000009
 20
-808.31144694520447
 30
0.0
 11
235.46000000000009
 21
-808.31144694520447
 31
0.0
  0
LINE
  5
53C
  8
DATA
  6
CONTINUOUS
 62
     7
 10
234.0580762113533
 20
-809.81144694520435
 30
0.0
 11
234.92410161513831
 21
-810.31144694520435
 31
0.0
  0
TEXT
  5
53D
  8
DATA
 62
     7
 10
234.70044234059159
 20
-811.91638314691579
 30
0.0
 40
3.30657958984375
  1
3
 50
210.0
 41
0.8
 11
236.3537321355135
 21
-814.7799650713556
 31
0.0
 73
     3
  0
LINE
  5
53E
  8
DATA
  6
CONTINUOUS
 62
     7
 10
238.53106781186591
 20
-801.24037913333882
 30
0.0
 11
233.58132034356021
 21
-806.19012660164503
 31
0.0
  0
LINE
  5
53F
  8
DATA
  6
CONTINUOUS
 62
     7
 10
231.7100000000006
 20
-703.81144694520481
 30
0.0
 11
263.96000000000009
 21
-703.81144694520481
 31
0.0
  0
TEXT
  5
540
  8
DATA
 62
     7
 10
232.7100000000006
 20
-702.97257975770435
 30
0.0
 40
2.0666122436523442
  1
100 V LINE
 41
0.8
 11
232.7100000000006
 21
-700.90596751405201
 31
0.0
 73
     3
  0
TEXT
  5
541
  8
DATA
 62
     7
 10
232.7100000000006
 20
-706.97257975770435
 30
0.0
 40
2.0666122436523442
  1
70 V LINE
 41
0.8
 11
232.7100000000006
 21
-704.90596751405212
 31
0.0
 73
     3
  0
TEXT
  5
542
  8
DATA
 62
     7
 10
236.068773487307
 20
-809.81319210461277
 30
0.0
 40
3.30657958984375
  1
2
 50
240.0
 41
0.8
 11
238.93235541174681
 21
-811.46648189953476
 31
0.0
 73
     3
  0
LINE
  5
543
  8
DATA
  6
CONTINUOUS
 62
     7
 10
226.2100000000006
 20
-786.31144694520481
 30
0.0
 11
226.2100000000006
 21
-697.31144694520481
 31
0.0
  0
ARC
  5
544
  8
DATA
  6
CONTINUOUS
 62
     7
 10
233.21000000000009
 20
-786.31144694520481
 30
0.0
 40
7.0
 50
180.0
 51
270.0
  0
CIRCLE
  5
545
  8
DATA
  6
CONTINUOUS
 62
     7
 10
231.46000000000009
 20
-808.31144694520447
 30
0.0
 40
3.0
  0
LINE
  5
546
  8
DATA
  6
CONTINUOUS
 62
     7
 10
231.46000000000009
 20
-812.31144694520435
 30
0.0
 11
231.46000000000009
 21
-811.31144694520435
 31
0.0
  0
CIRCLE
  5
547
  8
DATA
  6
CONTINUOUS
 62
     7
 10
231.46000000000009
 20
-804.81144694520447
 30
0.0
 40
0.5
  0
LINE
  5
548
  8
DATA
  6
CONTINUOUS
 62
     7
 10
229.96000000000009
 20
-805.71337073385132
 30
0.0
 11
229.46000000000009
 21
-804.84734533006667
 31
0.0
  0
LINE
  5
549
  8
DATA
  6
CONTINUOUS
 62
     7
 10
228.861923788647
 20
-806.81144694520435
 30
0.0
 11
227.9958983848625
 21
-806.31144694520435
 31
0.0
  0
LINE
  5
54A
  8
DATA
  6
CONTINUOUS
 62
     7
 10
228.46000000000009
 20
-808.31144694520447
 30
0.0
 11
227.46000000000009
 21
-808.31144694520447
 31
0.0
  0
LINE
  5
54B
  8
DATA
  6
CONTINUOUS
 62
     7
 10
232.96000000000009
 20
-810.90952315655795
 30
0.0
 11
233.46000000000009
 21
-811.7755485603426
 31
0.0
  0
LINE
  5
54C
  8
DATA
  6
CONTINUOUS
 62
     7
 10
229.33867965644009
 20
-810.43276728876424
 30
0.0
 11
224.38893218813439
 21
-815.38251475706954
 31
0.0
  0
TEXT
  5
54D
  8
DATA
 62
     7
 10
226.71781250000009
 20
-809.37612285416958
 30
0.0
 40
3.30657958984375
  1
1
 50
90.0
 41
0.8
 11
223.4112329101564
 21
-809.37612285416958
 31
0.0
 73
     3
  0
TEXT
  5
54E
  8
DATA
 62
     7
 10
232.46383728559621
 20
-813.05363444520458
 30
0.0
 40
3.30657958984375
  1
4
 50
180.0
 41
0.8
 11
232.46383728559621
 21
-816.36021403504844
 31
0.0
 73
     3
  0
TEXT
  5
54F
  8
DATA
 62
     7
 10
226.8512265126933
 20
-806.80970178579628
 30
0.0
 40
3.30657958984375
  1
2
 50
60.0
 41
0.8
 11
223.9876445882534
 21
-805.15641199087452
 31
0.0
 73
     3
  0
TEXT
  5
550
  8
DATA
 62
     7
 10
228.21955765940871
 20
-804.70651074349314
 30
0.0
 40
3.30657958984375
  1
3
 50
30.000000000000011
 41
0.8
 11
226.5662678644868
 21
-801.84292881905333
 31
0.0
 73
     3
  0
TEXT
  5
551
  8
DATA
 62
     7
 10
225.5005682753411
 20
-813.31806163207
 30
0.0
 40
1.653289794921875
  1
100V
 50
120.0
 41
0.8
 11
224.06877731312119
 21
-814.14470652953094
 31
0.0
 73
     3
  0
LINE
  5
552
  8
DATA
  6
CONTINUOUS
 62
     7
 10
251.96000000000009
 20
-794.81144694520435
 30
0.0
 11
283.46000000000009
 21
-794.81144694520435
 31
0.0
  0
LINE
  5
553
  8
DATA
  6
CONTINUOUS
 62
     7
 10
251.96000000000009
 20
-827.31144694520435
 30
0.0
 11
283.46000000000009
 21
-827.31144694520435
 31
0.0
  0
LINE
  5
554
  8
DATA
  6
CONTINUOUS
 62
     7
 10
251.96000000000009
 20
-800.81144694520435
 30
0.0
 11
283.46000000000009
 21
-800.81144694520435
 31
0.0
  0
LINE
  5
555
  8
DATA
  6
CONTINUOUS
 62
     7
 10
251.96000000000009
 20
-832.81144694520481
 30
0.0
 11
283.46000000000009
 21
-832.81144694520481
 31
0.0
  0
TEXT
  5
556
  8
DATA
 62
     7
 10
253.46000000000009
 20
-799.76925944520474
 30
0.0
 40
3.30657958984375
  1
CONTROL
 41
0.8
 11
253.46000000000009
 21
-796.46267985536088
 31
0.0
 73
     3
  0
LINE
  5
557
  8
DATA
  6
CONTINUOUS
 62
     7
 10
251.71000000000009
 20
-774.31144694520435
 30
0.0
 11
283.71000000000009
 21
-774.31144694520435
 31
0.0
  0
LINE
  5
558
  8
DATA
  6
CONTINUOUS
 62
     7
 10
251.71000000000009
 20
-780.31144694520481
 30
0.0
 11
283.71000000000009
 21
-780.31144694520481
 31
0.0
  0
ARC
  5
559
  8
DATA
  6
CONTINUOUS
 62
     7
 10
267.71000000000009
 20
-777.31144694520435
 30
0.0
 40
9.7499999999997158
 50
17.920213139392821
 51
162.0797868606071
  0
ARC
  5
55A
  8
DATA
  6
CONTINUOUS
 62
     7
 10
267.71000000000009
 20
-777.31144694520435
 30
0.0
 40
9.7499999999997158
 50
197.92021313939281
 51
342.07978686060721
  0
CIRCLE
  5
55B
  8
DATA
  6
CONTINUOUS
 62
     7
 10
267.71000000000009
 20
-740.81144694520435
 30
0.0
 40
20.0
  0
CIRCLE
  5
55C
  8
DATA
  6
CONTINUOUS
 62
     7
 10
267.71000000000009
 20
-740.81144694520435
 30
0.0
 40
18.0
  0
LINE
  5
55D
  8
DATA
  6
CONTINUOUS
 62
     7
 10
251.96000000000009
 20
-832.81144694520481
 30
0.0
 11
251.96000000000009
 21
-794.81144694520435
 31
0.0
  0
LINE
  5
55E
  8
DATA
  6
CONTINUOUS
 62
     7
 10
251.71000000000009
 20
-780.31144694520481
 30
0.0
 11
251.71000000000009
 21
-774.31144694520435
 31
0.0
  0
LINE
  5
55F
  8
DATA
  6
CONTINUOUS
 62
     7
 10
283.46000000000009
 20
-832.81144694520481
 30
0.0
 11
283.46000000000009
 21
-794.81144694520435
 31
0.0
  0
TEXT
  5
560
  8
DATA
 62
     7
 10
278.00679465615502
 20
-799.76925944520474
 30
0.0
 40
3.30657958984375
  1
25
 41
0.8
 11
278.00679465615502
 21
-796.46267985536088
 31
0.0
 73
     3
  0
LINE
  5
561
  8
DATA
  6
CONTINUOUS
 62
     7
 10
283.71000000000009
 20
-780.31144694520481
 30
0.0
 11
283.71000000000009
 21
-774.31144694520435
 31
0.0
  0
CIRCLE
  5
562
  8
DATA
  6
CONTINUOUS
 62
     7
 10
299.46000000000009
 20
-740.81144694520435
 30
0.0
 40
2.0
  0
LINE
  5
563
  8
DATA
  6
CONTINUOUS
 62
     7
 10
261.21000000000009
 20
-742.31144694520447
 30
0.0
 11
261.21000000000009
 21
-739.31144694520435
 31
0.0
  0
LINE
  5
564
  8
DATA
  6
CONTINUOUS
 62
     7
 10
261.21000000000009
 20
-739.31144694520435
 30
0.0
 11
274.2100000000006
 21
-739.31144694520435
 31
0.0
  0
LINE
  5
565
  8
DATA
  6
CONTINUOUS
 62
     7
 10
274.2100000000006
 20
-739.31144694520435
 30
0.0
 11
274.2100000000006
 21
-742.31144694520447
 31
0.0
  0
LINE
  5
566
  8
DATA
  6
CONTINUOUS
 62
     7
 10
274.2100000000006
 20
-742.31144694520447
 30
0.0
 11
261.21000000000009
 21
-742.31144694520447
 31
0.0
  0
ARC
  5
567
  8
DATA
  6
CONTINUOUS
 62
     7
 10
302.21000000000112
 20
-786.31144694520435
 30
0.0
 40
7.0
 50
270.0
 51
0.0
  0
LINE
  5
568
  8
DATA
  6
CONTINUOUS
 62
     7
 10
309.210000000001
 20
-786.31144694520435
 30
0.0
 11
309.210000000001
 21
-697.31144694520481
 31
0.0
  0
TEXT
  5
569
  8
DATA
 62
     7
 10
236.20218750000021
 20
-807.30760965960906
 30
0.0
 40
3.30657958984375
  1
1
 50
270.0
 41
0.8
 11
239.5087670898439
 21
-807.30760965960906
 31
0.0
 73
     3
  0
TEXT
  5
56A
  8
DATA
 62
     7
 10
237.4194317246592
 20
-803.30483225833905
 30
0.0
 40
1.653289794921875
  1
70V
 50
300.0
 41
0.8
 11
238.85122268687911
 21
-802.478187360878
 31
0.0
 73
     3
  0
CIRCLE
  5
56B
  8
DATA
  6
CONTINUOUS
 62
     7
 10
267.7100000000006
 20
-703.81144694520481
 30
0.0
 40
3.75
  0
LINE
  5
56C
  8
DATA
  6
CONTINUOUS
 62
     7
 10
262.210000000001
 20
-713.33772638683365
 30
0.0
 11
255.210000000001
 21
-713.33772638683365
 31
0.0
  0
LINE
  5
56D
  8
DATA
  6
CONTINUOUS
 62
     7
 10
265.8350000000006
 20
-707.05904220939635
 30
0.0
 11
262.210000000001
 21
-713.33772638683365
 31
0.0
  0
LINE
  5
56E
  8
DATA
  6
CONTINUOUS
 62
     7
 10
267.7100000000006
 20
-696.31144694520435
 30
0.0
 11
267.7100000000006
 21
-700.06144694520481
 31
0.0
  0
LINE
  5
56F
  8
DATA
  6
CONTINUOUS
 62
     7
 10
267.7100000000006
 20
-707.56144694520447
 30
0.0
 11
267.7100000000006
 21
-711.31144694520435
 31
0.0
  0
LINE
  5
570
  8
DATA
  6
CONTINUOUS
 62
     7
 10
269.585000000001
 20
-707.05904220939635
 30
0.0
 11
273.210000000001
 21
-713.33772638683365
 31
0.0
  0
LINE
  5
571
  8
DATA
  6
CONTINUOUS
 62
     7
 10
273.210000000001
 20
-713.33772638683365
 30
0.0
 11
280.210000000001
 21
-713.33772638683365
 31
0.0
  0
LINE
  5
572
  8
DATA
  6
CONTINUOUS
 62
     7
 10
259.26625231310322
 20
-698.93644694520481
 30
0.0
 11
264.46240473580889
 21
-701.93644694520435
 31
0.0
  0
LINE
  5
573
  8
DATA
  6
CONTINUOUS
 62
     7
 10
270.95759526419272
 20
-705.68644694520435
 30
0.0
 11
276.15374768689901
 21
-708.68644694520481
 31
0.0
  0
LINE
  5
574
  8
DATA
  6
CONTINUOUS
 62
     7
 10
276.15374768689901
 20
-708.68644694520481
 30
0.0
 11
280.21000000000009
 21
-708.68644694520481
 31
0.0
  0
LINE
  5
575
  8
DATA
  6
CONTINUOUS
 62
     7
 10
255.210000000001
 20
-698.93644694520481
 30
0.0
 11
259.26625231310322
 21
-698.93644694520481
 31
0.0
  0
LINE
  5
576
  8
DATA
  6
CONTINUOUS
 62
     7
 10
271.460000000001
 20
-703.81144694520481
 30
0.0
 11
303.7100000000006
 21
-703.81144694520481
 31
0.0
  0
CIRCLE
  5
577
  8
DATA
  6
CONTINUOUS
 62
     7
 10
269.960000000001
 20
-699.91433262817475
 30
0.0
 40
0.5
  0
TEXT
  5
578
  8
DATA
 62
     7
 10
248.4969749643239
 20
-700.12980632020447
 30
0.0
 40
2.4799346923828121
  1
7.5W
 41
0.8
 11
248.4969749643239
 21
-697.64987162782165
 31
0.0
 73
     3
  0
TEXT
  5
579
  8
DATA
 62
     7
 10
249.0359395903308
 20
-714.53108576183354
 30
0.0
 40
2.4799346923828121
  1
30W
 41
0.8
 11
249.0359395903308
 21
-712.05115106945073
 31
0.0
 73
     3
  0
TEXT
  5
57A
  8
DATA
 62
     7
 10
265.710000000001
 20
-714.50480632020458
 30
0.0
 40
2.4799346923828121
  1
15W
 41
0.8
 11
265.710000000001
 21
-712.02487162782177
 31
0.0
 73
     3
  0
TEXT
  5
57B
  8
DATA
 62
     7
 10
281.2100000000006
 20
-714.53108576183354
 30
0.0
 40
2.4799346923828121
  1
7.5W
 41
0.8
 11
281.2100000000006
 21
-712.05115106945073
 31
0.0
 73
     3
  0
TEXT
  5
57C
  8
DATA
 62
     7
 10
281.21000000000009
 20
-709.87980632020481
 30
0.0
 40
2.4799346923828121
  1
3.7W
 41
0.8
 11
281.21000000000009
 21
-707.39987162782199
 31
0.0
 73
     3
  0
TEXT
  5
57D
  8
DATA
 62
     7
 10
261.45330378298888
 20
-703.06535319520469
 30
0.0
 40
1.653289794921875
  1
1
 41
0.8
 11
261.45330378298888
 21
-701.41206340028293
 31
0.0
 73
     3
  0
TEXT
  5
57E
  8
DATA
 62
     7
 10
263.25707074798589
 20
-700.19275793101315
 30
0.0
 40
1.653289794921875
  1
2
 41
0.8
 11
263.25707074798589
 21
-698.53946813609116
 31
0.0
 73
     3
  0
TEXT
  5
57F
  8
DATA
 62
     7
 10
266.1320707479864
 20
-699.19035319520447
 30
0.0
 40
1.653289794921875
  1
3
 41
0.8
 11
266.1320707479864
 21
-697.53706340028259
 31
0.0
 73
     3
  0
TEXT
  5
580
  8
DATA
 62
     7
 10
265.8350000000006
 20
-710.18794845939635
 30
0.0
 40
1.653289794921875
  1
4
 41
0.8
 11
265.8350000000006
 21
-708.53465866447436
 31
0.0
 73
     3
  0
TEXT
  5
581
  8
DATA
 62
     7
 10
268.71000000000009
 20
-710.19035319520458
 30
0.0
 40
1.653289794921875
  1
3
 41
0.8
 11
268.71000000000009
 21
-708.5370634002827
 31
0.0
 73
     3
  0
TEXT
  5
582
  8
DATA
 62
     7
 10
271.0070707479864
 20
-708.68794845939635
 30
0.0
 40
1.653289794921875
  1
2
 41
0.8
 11
271.0070707479864
 21
-707.03465866447448
 31
0.0
 73
     3
  0
TEXT
  5
583
  8
DATA
 62
     7
 10
272.37966601217761
 20
-705.81535319520447
 30
0.0
 40
1.653289794921875
  1
1
 41
0.8
 11
272.37966601217761
 21
-704.1620634002827
 31
0.0
 73
     3
  0
LINE
  5
584
  8
DATA
  6
CONTINUOUS
 62
     7
 10
233.2100000000006
 20
-690.31144694520435
 30
0.0
 11
302.21000000000112
 21
-690.31144694520435
 31
0.0
  0
LINE
  5
585
  8
DATA
  6
CONTINUOUS
 62
     7
 10
243.71000000000009
 20
-688.31144694520447
 30
0.0
 11
291.71000000000009
 21
-688.31144694520447
 31
0.0
  0
LINE
  5
586
  8
DATA
  6
CONTINUOUS
 62
     7
 10
243.7100000000006
 20
-689.31144694520435
 30
0.0
 11
291.71000000000009
 21
-689.31144694520435
 31
0.0
  0
CIRCLE
  5
587
  8
DATA
  6
CONTINUOUS
 62
     7
 10
258.2100000000006
 20
-682.06144694520447
 30
0.0
 40
2.5
  0
LINE
  5
588
  8
DATA
  6
CONTINUOUS
 62
     7
 10
256.46000000000009
 20
-682.06144694520447
 30
0.0
 11
259.96000000000009
 21
-682.06144694520447
 31
0.0
  0
ARC
  5
589
  8
DATA
  6
CONTINUOUS
 62
     7
 10
243.71000000000009
 20
-684.31144694520447
 30
0.0
 40
4.0
 50
180.0
 51
270.0
  0
ARC
  5
58A
  8
DATA
  6
CONTINUOUS
 62
     7
 10
243.7100000000006
 20
-684.31144694520447
 30
0.0
 40
5.0
 50
180.0
 51
270.0
  0
CIRCLE
  5
58B
  8
DATA
  6
CONTINUOUS
 62
     7
 10
245.71000000000009
 20
-682.06144694520447
 30
0.0
 40
2.75
  0
LINE
  5
58C
  8
DATA
  6
CONTINUOUS
 62
     7
 10
243.7100000000006
 20
-682.06144694520447
 30
0.0
 11
247.71000000000009
 21
-682.06144694520447
 31
0.0
  0
LINE
  5
58D
  8
DATA
  6
CONTINUOUS
 62
     7
 10
245.71000000000009
 20
-684.06144694520435
 30
0.0
 11
245.71000000000009
 21
-680.06144694520435
 31
0.0
  0
CIRCLE
  5
58E
  8
DATA
  6
CONTINUOUS
 62
     7
 10
277.21000000000009
 20
-682.06144694520447
 30
0.0
 40
2.5
  0
LINE
  5
58F
  8
DATA
  6
CONTINUOUS
 62
     7
 10
275.46000000000009
 20
-682.06144694520447
 30
0.0
 11
278.96000000000009
 21
-682.06144694520447
 31
0.0
  0
LINE
  5
590
  8
DATA
  6
CONTINUOUS
 62
     7
 10
277.21000000000009
 20
-683.81144694520435
 30
0.0
 11
277.21000000000009
 21
-680.31144694520447
 31
0.0
  0
ARC
  5
591
  8
DATA
  6
CONTINUOUS
 62
     7
 10
291.71000000000009
 20
-684.31144694520447
 30
0.0
 40
4.0
 50
270.0
 51
0.0
  0
ARC
  5
592
  8
DATA
  6
CONTINUOUS
 62
     7
 10
291.71000000000009
 20
-684.31144694520447
 30
0.0
 40
5.0
 50
270.0
 51
0.0
  0
CIRCLE
  5
593
  8
DATA
  6
CONTINUOUS
 62
     7
 10
289.71000000000009
 20
-682.06144694520447
 30
0.0
 40
2.75
  0
LINE
  5
594
  8
DATA
  6
CONTINUOUS
 62
     7
 10
287.71000000000009
 20
-682.06144694520447
 30
0.0
 11
291.7100000000006
 21
-682.06144694520447
 31
0.0
  0
LINE
  5
595
  8
DATA
  6
CONTINUOUS
 62
     7
 10
289.71000000000009
 20
-684.06144694520435
 30
0.0
 11
289.71000000000009
 21
-680.06144694520435
 31
0.0
  0
LINE
  5
596
  8
DATA
  6
CONTINUOUS
 62
     7
 10
273.210000000001
 20
-694.28516750357585
 30
0.0
 11
280.210000000001
 21
-694.28516750357585
 31
0.0
  0
LINE
  5
597
  8
DATA
  6
CONTINUOUS
 62
     7
 10
262.2100000000006
 20
-694.28516750357585
 30
0.0
 11
255.2100000000006
 21
-694.28516750357585
 31
0.0
  0
LINE
  5
598
  8
DATA
  6
CONTINUOUS
 62
     7
 10
231.7100000000006
 20
-716.31144694520435
 30
0.0
 11
231.7100000000006
 21
-691.31144694520481
 31
0.0
  0
LINE
  5
599
  8
DATA
  6
CONTINUOUS
 62
     7
 10
231.7100000000006
 20
-691.31144694520481
 30
0.0
 11
303.7100000000006
 21
-691.31144694520481
 31
0.0
  0
LINE
  5
59A
  8
DATA
  6
CONTINUOUS
 62
     7
 10
303.7100000000006
 20
-691.31144694520481
 30
0.0
 11
303.7100000000006
 21
-716.31144694520435
 31
0.0
  0
LINE
  5
59B
  8
DATA
  6
CONTINUOUS
 62
     7
 10
303.7100000000006
 20
-716.31144694520435
 30
0.0
 11
231.7100000000006
 21
-716.31144694520435
 31
0.0
  0
ARC
  5
59C
  8
DATA
  6
CONTINUOUS
 62
     7
 10
358.9000000000002
 20
-848.4799999999999
 30
0.0
 40
1.5199999999999809
 50
270.0
 51
0.0
  0
LINE
  5
59D
  8
DATA
  6
CONTINUOUS
 62
     7
 10
358.9000000000002
 20
-614.73051880000003
 30
0.0
 11
176.52000000000061
 21
-614.73051880000003
 31
0.0
  0
LINE
  5
59E
  8
DATA
  6
CONTINUOUS
 62
     7
 10
359.97480230740359
 20
-615.17571649259605
 30
0.0
 11
317.05652955035168
 21
-627.41942002886606
 31
0.0
  0
LINE
  5
59F
  8
DATA
  6
CONTINUOUS
 62
     7
 10
175.44519769259671
 20
-615.17571649259605
 30
0.0
 11
218.3634704496491
 21
-627.41942002886606
 31
0.0
  0
ARC
  5
5A0
  8
DATA
  6
CONTINUOUS
 62
     7
 10
176.52000000000061
 20
-616.2505187999999
 30
0.0
 40
1.5199999999999809
 50
90.0
 51
180.0
  0
LINE
  5
5A1
  8
DATA
  6
CONTINUOUS
 62
     7
 10
218.3634704496491
 20
-627.41942002886606
 30
0.0
 11
317.05652955035168
 21
-627.41942002886606
 31
0.0
  0
LINE
  5
5A2
  8
DATA
  6
CONTINUOUS
 62
     7
 10
286.46000000000009
 20
-676.06144694520435
 30
0.0
 11
248.96000000000009
 21
-676.06144694520435
 31
0.0
  0
LINE
  5
5A3
  8
DATA
  6
CONTINUOUS
 62
     7
 10
248.96000000000009
 20
-670.06144694520447
 30
0.0
 11
286.46000000000009
 21
-670.06144694520447
 31
0.0
  0
LINE
  5
5A4
  8
DATA
  6
CONTINUOUS
 62
     7
 10
252.460000000001
 20
-666.56144694520481
 30
0.0
 11
263.96000000000009
 21
-666.56144694520435
 31
0.0
  0
LINE
  5
5A5
  8
DATA
  6
CONTINUOUS
 62
     7
 10
252.460000000001
 20
-665.06144694520435
 30
0.0
 11
263.96000000000009
 21
-665.06144694520435
 31
0.0
  0
LINE
  5
5A6
  8
DATA
  6
CONTINUOUS
 62
     7
 10
252.460000000001
 20
-663.06144694520435
 30
0.0
 11
263.96000000000009
 21
-663.06144694520435
 31
0.0
  0
LINE
  5
5A7
  8
DATA
  6
CONTINUOUS
 62
     7
 10
243.7100000000006
 20
-631.81144694520481
 30
0.0
 11
291.71000000000009
 21
-631.81144694520435
 31
0.0
  0
LINE
  5
5A8
  8
DATA
  6
CONTINUOUS
 62
     7
 10
243.7100000000006
 20
-630.81144694520481
 30
0.0
 11
291.71000000000009
 21
-630.81144694520481
 31
0.0
  0
LINE
  5
5A9
  8
DATA
  6
CONTINUOUS
 62
     7
 10
248.96000000000009
 20
-644.06144694520435
 30
0.0
 11
286.46000000000009
 21
-644.06144694520435
 31
0.0
  0
LINE
  5
5AA
  8
DATA
  6
CONTINUOUS
 62
     7
 10
248.96000000000009
 20
-652.06144694520481
 30
0.0
 11
286.46000000000009
 21
-652.06144694520481
 31
0.0
  0
LINE
  5
5AB
  8
DATA
  6
CONTINUOUS
 62
     7
 10
256.21000000000009
 20
-646.06144694520481
 30
0.0
 11
260.21000000000009
 21
-646.06144694520481
 31
0.0
  0
LINE
  5
5AC
  8
DATA
  6
CONTINUOUS
 62
     7
 10
260.21000000000009
 20
-650.06144694520481
 30
0.0
 11
256.21000000000009
 21
-650.06144694520481
 31
0.0
  0
LINE
  5
5AD
  8
DATA
  6
CONTINUOUS
 62
     7
 10
250.46000000000009
 20
-644.56144694520447
 30
0.0
 11
265.96000000000009
 21
-644.56144694520447
 31
0.0
  0
LINE
  5
5AE
  8
DATA
  6
CONTINUOUS
 62
     7
 10
265.96000000000009
 20
-651.56144694520481
 30
0.0
 11
250.46000000000009
 21
-651.56144694520481
 31
0.0
  0
LINE
  5
5AF
  8
DATA
  6
CONTINUOUS
 62
     7
 10
248.96000000000009
 20
-676.06144694520435
 30
0.0
 11
248.96000000000009
 21
-644.06144694520435
 31
0.0
  0
LINE
  5
5B0
  8
DATA
  6
CONTINUOUS
 62
     7
 10
252.460000000001
 20
-652.06144694520481
 30
0.0
 11
252.460000000001
 21
-670.06144694520447
 31
0.0
  0
ARC
  5
5B1
  8
DATA
  6
CONTINUOUS
 62
     7
 10
243.7100000000006
 20
-635.81144694520481
 30
0.0
 40
4.0
 50
90.0
 51
180.0
  0
ARC
  5
5B2
  8
DATA
  6
CONTINUOUS
 62
     7
 10
243.7100000000006
 20
-635.81144694520435
 30
0.0
 40
5.0
 50
90.0
 51
180.0
  0
CIRCLE
  5
5B3
  8
DATA
  6
CONTINUOUS
 62
     7
 10
245.71000000000009
 20
-638.06144694520435
 30
0.0
 40
2.75
  0
LINE
  5
5B4
  8
DATA
  6
CONTINUOUS
 62
     7
 10
243.7100000000006
 20
-638.06144694520435
 30
0.0
 11
247.71000000000009
 21
-638.06144694520435
 31
0.0
  0
LINE
  5
5B5
  8
DATA
  6
CONTINUOUS
 62
     7
 10
245.71000000000009
 20
-640.06144694520435
 30
0.0
 11
245.71000000000009
 21
-636.06144694520447
 31
0.0
  0
LINE
  5
5B6
  8
DATA
  6
CONTINUOUS
 62
     7
 10
256.21000000000009
 20
-650.06144694520481
 30
0.0
 11
256.21000000000009
 21
-646.06144694520481
 31
0.0
  0
LINE
  5
5B7
  8
DATA
  6
CONTINUOUS
 62
     7
 10
250.46000000000009
 20
-651.56144694520481
 30
0.0
 11
250.46000000000009
 21
-644.56144694520447
 31
0.0
  0
LINE
  5
5B8
  8
DATA
  6
CONTINUOUS
 62
     7
 10
263.96000000000009
 20
-670.06144694520447
 30
0.0
 11
263.96000000000009
 21
-652.06144694520481
 31
0.0
  0
LINE
  5
5B9
  8
DATA
  6
CONTINUOUS
 62
     7
 10
271.46000000000009
 20
-652.06144694520481
 30
0.0
 11
271.460000000001
 21
-670.06144694520447
 31
0.0
  0
LINE
  5
5BA
  8
DATA
  6
CONTINUOUS
 62
     7
 10
282.96000000000009
 20
-670.06144694520447
 30
0.0
 11
282.96000000000009
 21
-652.06144694520481
 31
0.0
  0
LINE
  5
5BB
  8
DATA
  6
CONTINUOUS
 62
     7
 10
286.46000000000009
 20
-644.06144694520435
 30
0.0
 11
286.46000000000009
 21
-676.06144694520435
 31
0.0
  0
LINE
  5
5BC
  8
DATA
  6
CONTINUOUS
 62
     7
 10
271.46000000000009
 20
-666.56144694520481
 30
0.0
 11
282.9600000000006
 21
-666.56144694520435
 31
0.0
  0
LINE
  5
5BD
  8
DATA
  6
CONTINUOUS
 62
     7
 10
271.46000000000009
 20
-665.06144694520435
 30
0.0
 11
282.9600000000006
 21
-665.06144694520435
 31
0.0
  0
LINE
  5
5BE
  8
DATA
  6
CONTINUOUS
 62
     7
 10
271.46000000000009
 20
-663.06144694520435
 30
0.0
 11
282.9600000000006
 21
-663.06144694520435
 31
0.0
  0
TEXT
  5
5BF
  8
DATA
 62
     7
 10
259.8461320207299
 20
-675.44816569520447
 30
0.0
 40
4.959869384765625
  1
INPUT
 41
0.8
 11
259.8461320207299
 21
-670.48829631043895
 31
0.0
 73
     3
  0
LINE
  5
5C0
  8
DATA
  6
CONTINUOUS
 62
     7
 10
269.46000000000009
 20
-644.56144694520447
 30
0.0
 11
284.96000000000009
 21
-644.56144694520447
 31
0.0
  0
LINE
  5
5C1
  8
DATA
  6
CONTINUOUS
 62
     7
 10
284.96000000000009
 20
-651.56144694520481
 30
0.0
 11
269.46000000000009
 21
-651.56144694520481
 31
0.0
  0
LINE
  5
5C2
  8
DATA
  6
CONTINUOUS
 62
     7
 10
260.21000000000009
 20
-646.06144694520481
 30
0.0
 11
260.21000000000009
 21
-650.06144694520481
 31
0.0
  0
LINE
  5
5C3
  8
DATA
  6
CONTINUOUS
 62
     7
 10
265.96000000000009
 20
-644.56144694520447
 30
0.0
 11
265.96000000000009
 21
-651.56144694520481
 31
0.0
  0
LINE
  5
5C4
  8
DATA
  6
CONTINUOUS
 62
     7
 10
275.21000000000009
 20
-650.06144694520481
 30
0.0
 11
275.21000000000009
 21
-646.06144694520481
 31
0.0
  0
LINE
  5
5C5
  8
DATA
  6
CONTINUOUS
 62
     7
 10
275.21000000000009
 20
-646.06144694520481
 30
0.0
 11
279.21000000000009
 21
-646.06144694520481
 31
0.0
  0
LINE
  5
5C6
  8
DATA
  6
CONTINUOUS
 62
     7
 10
279.21000000000009
 20
-646.06144694520481
 30
0.0
 11
279.21000000000009
 21
-650.06144694520481
 31
0.0
  0
LINE
  5
5C7
  8
DATA
  6
CONTINUOUS
 62
     7
 10
279.21000000000009
 20
-650.06144694520481
 30
0.0
 11
275.21000000000009
 21
-650.06144694520481
 31
0.0
  0
LINE
  5
5C8
  8
DATA
  6
CONTINUOUS
 62
     7
 10
269.46000000000009
 20
-651.56144694520481
 30
0.0
 11
269.46000000000009
 21
-644.56144694520447
 31
0.0
  0
LINE
  5
5C9
  8
DATA
  6
CONTINUOUS
 62
     7
 10
284.96000000000009
 20
-644.56144694520447
 30
0.0
 11
284.96000000000009
 21
-651.56144694520481
 31
0.0
  0
ARC
  5
5CA
  8
DATA
  6
CONTINUOUS
 62
     7
 10
291.71000000000009
 20
-635.81144694520435
 30
0.0
 40
4.0
 50
0.0
 51
90.0
  0
ARC
  5
5CB
  8
DATA
  6
CONTINUOUS
 62
     7
 10
291.71000000000009
 20
-635.81144694520435
 30
0.0
 40
5.0
 50
0.0
 51
90.0
  0
CIRCLE
  5
5CC
  8
DATA
  6
CONTINUOUS
 62
     7
 10
289.71000000000009
 20
-638.06144694520435
 30
0.0
 40
2.75
  0
LINE
  5
5CD
  8
DATA
  6
CONTINUOUS
 62
     7
 10
287.71000000000009
 20
-638.06144694520435
 30
0.0
 11
291.7100000000006
 21
-638.06144694520435
 31
0.0
  0
LINE
  5
5CE
  8
DATA
  6
CONTINUOUS
 62
     7
 10
289.71000000000009
 20
-640.06144694520435
 30
0.0
 11
289.71000000000009
 21
-636.06144694520447
 31
0.0
  0
ARC
  5
5CF
  8
DATA
  6
CONTINUOUS
 62
     7
 10
358.9000000000002
 20
-616.2505187999999
 30
0.0
 40
1.5199999999999809
 50
0.0
 51
90.0
  0
ARC
  5
5D0
  8
DATA
  6
CONTINUOUS
 62
     7
 10
268.93396877990568
 20
-817.91294308220301
 30
0.0
 40
0.3506614263002954
 50
307.64190249757252
 51
354.26701928939599
  0
LINE
  5
5D1
  8
DATA
  6
CONTINUOUS
 62
     7
 10
259.92680427997522
 20
-812.38708653192953
 30
0.0
 11
261.57071027997517
 21
-808.47011853192942
 31
0.0
  0
LINE
  5
5D2
  8
DATA
  6
CONTINUOUS
 62
     7
 10
259.92680427997522
 20
-812.38708653192953
 30
0.0
 11
258.30318227997509
 21
-808.47011853192942
 31
0.0
  0
LINE
  5
5D3
  8
DATA
  6
CONTINUOUS
 62
     7
 10
272.38804427997519
 20
-819.47011853192964
 30
0.0
 11
272.38804427997519
 21
-808.47011853192942
 31
0.0
  0
LINE
  5
5D4
  8
DATA
  6
CONTINUOUS
 62
     7
 10
274.49874627997519
 20
-808.47011853192942
 30
0.0
 11
274.49874627997519
 21
-817.78562253192945
 31
0.0
  0
LINE
  5
5D5
  8
DATA
  6
CONTINUOUS
 62
     7
 10
262.3419312799752
 20
-808.47011853192942
 30
0.0
 11
262.3419312799752
 21
-817.78562253192945
 31
0.0
  0
LINE
  5
5D6
  8
DATA
  6
CONTINUOUS
 62
     7
 10
264.37145327997519
 20
-808.47011853192942
 30
0.0
 11
264.37145327997519
 21
-817.78562253192945
 31
0.0
  0
LINE
  5
5D7
  8
DATA
  6
CONTINUOUS
 62
     7
 10
265.42680427997522
 20
-808.47011853192942
 30
0.0
 11
265.42680427997522
 21
-819.47011853192964
 31
0.0
  0
LINE
  5
5D8
  8
DATA
  6
CONTINUOUS
 62
     7
 10
267.27367127997519
 20
-809.5051635319295
 30
0.0
 11
267.27367127997519
 21
-813.03653753192953
 31
0.0
  0
LINE
  5
5D9
  8
DATA
  6
CONTINUOUS
 62
     7
 10
271.23210927997519
 20
-812.8322015319294
 30
0.0
 11
271.23210927997519
 21
-810.25610053192941
 31
0.0
  0
LINE
  5
5DA
  8
DATA
  6
CONTINUOUS
 62
     7
 10
269.28287627997508
 20
-809.99225453192958
 30
0.0
 11
269.28287627997508
 21
-812.54945753192942
 31
0.0
  0
ARC
  5
5DB
  8
DATA
  6
CONTINUOUS
 62
     7
 10
261.9346672799752
 20
-816.64553853192933
 30
0.0
 40
2.836738767684758
 50
264.690856221535
 51
323.99119915424069
  0
LINE
  5
5DC
  8
DATA
  6
CONTINUOUS
 62
     7
 10
260.79950027997518
 20
-816.01992453192952
 30
0.0
 11
260.79950027997518
 21
-817.7856005319295
 31
0.0
  0
LINE
  5
5DD
  8
DATA
  6
CONTINUOUS
 62
     7
 10
260.79950027997518
 20
-816.01992453192952
 30
0.0
 11
258.97292827997512
 21
-816.01992453192952
 31
0.0
  0
LINE
  5
5DE
  8
DATA
  6
CONTINUOUS
 62
     7
 10
258.97292827997512
 20
-816.01992453192952
 30
0.0
 11
258.97292827997512
 21
-817.7856005319295
 31
0.0
  0
ARC
  5
5DF
  8
DATA
  6
CONTINUOUS
 62
     7
 10
261.57458227997517
 20
-817.80940453192943
 30
0.0
 40
0.7677217088665264
 50
269.71184879274858
 51
1.7759870056941049
  0
ARC
  5
5E0
  8
DATA
  6
CONTINUOUS
 62
     7
 10
261.56684927997509
 20
-817.80940453192943
 30
0.0
 40
0.7677177832054875
 50
178.22401299431689
 51
270.28815120724721
  0
ARC
  5
5E1
  8
DATA
  6
CONTINUOUS
 62
     7
 10
261.40971427997511
 20
-816.64553853192933
 30
0.0
 40
2.8367341606412602
 50
216.00880084575991
 51
275.30914377846528
  0
ARC
  5
5E2
  8
DATA
  6
CONTINUOUS
 62
     7
 10
260.25491227997509
 20
-817.7234175319295
 30
0.0
 40
1.2834802289938589
 50
182.77699544999371
 51
207.35960666714709
  0
CIRCLE
  5
5E3
  8
DATA
  6
CONTINUOUS
 62
     7
 10
260.0384322799751
 20
-813.90923353192932
 30
0.0
 40
1.0451979999999701
  0
LINE
  5
5E4
  8
DATA
  6
CONTINUOUS
 62
     7
 10
277.88804427997519
 20
-819.47010753192944
 30
0.0
 11
272.38804427997519
 21
-819.47010753192944
 31
0.0
  0
LINE
  5
5E5
  8
DATA
  6
CONTINUOUS
 62
     7
 10
277.88804427997519
 20
-819.47010753192944
 30
0.0
 11
277.88804427997519
 21
-816.01991353192932
 31
0.0
  0
LINE
  5
5E6
  8
DATA
  6
CONTINUOUS
 62
     7
 10
277.88804427997519
 20
-816.01992453192952
 30
0.0
 11
276.04118827997519
 21
-816.01992453192952
 31
0.0
  0
LINE
  5
5E7
  8
DATA
  6
CONTINUOUS
 62
     7
 10
276.04118827997519
 20
-816.01992453192952
 30
0.0
 11
276.04118827997519
 21
-817.7856005319295
 31
0.0
  0
LINE
  5
5E8
  8
DATA
  6
CONTINUOUS
 62
     7
 10
265.42680427997522
 20
-819.47010753192944
 30
0.0
 11
269.28287627997508
 21
-819.47009653192947
 31
0.0
  0
LINE
  5
5E9
  8
DATA
  6
CONTINUOUS
 62
     7
 10
267.27366027997522
 20
-818.4350515319295
 30
0.0
 11
268.26812627997509
 21
-818.4350515319295
 31
0.0
  0
LINE
  5
5EA
  8
DATA
  6
CONTINUOUS
 62
     7
 10
267.27367127997519
 20
-818.4350515319295
 30
0.0
 11
267.27367127997519
 21
-814.09187753192953
 31
0.0
  0
LINE
  5
5EB
  8
DATA
  6
CONTINUOUS
 62
     7
 10
267.27366027997522
 20
-814.09187753192953
 30
0.0
 11
268.26812627997509
 21
-814.09187753192953
 31
0.0
  0
LINE
  5
5EC
  8
DATA
  6
CONTINUOUS
 62
     7
 10
269.28287627997508
 20
-817.94797153192951
 30
0.0
 11
269.28287627997508
 21
-814.57895753192952
 31
0.0
  0
ARC
  5
5ED
  8
DATA
  6
CONTINUOUS
 62
     7
 10
263.08946927997511
 20
-817.7234175319295
 30
0.0
 40
1.283478402651528
 50
332.6403933328528
 51
357.2230045500043
  0
ARC
  5
5EE
  8
DATA
  6
CONTINUOUS
 62
     7
 10
275.27382827997519
 20
-817.80940453192943
 30
0.0
 40
0.7677217088665259
 50
269.7118487927529
 51
1.7759870056941049
  0
ARC
  5
5EF
  8
DATA
  6
CONTINUOUS
 62
     7
 10
275.26610627997519
 20
-817.80940453192943
 30
0.0
 40
0.7677177832054875
 50
178.22401299431689
 51
270.28815120724721
  0
LINE
  5
5F0
  8
DATA
  6
CONTINUOUS
 62
     7
 10
271.23121827997511
 20
-817.7044205319296
 30
0.0
 11
271.23121827997511
 21
-814.78191853192959
 31
0.0
  0
LINE
  5
5F1
  8
DATA
  6
CONTINUOUS
 62
     7
 10
267.27366027997522
 20
-813.03653753192953
 30
0.0
 11
268.26812627997509
 21
-813.03653753192953
 31
0.0
  0
ARC
  5
5F2
  8
DATA
  6
CONTINUOUS
 62
     7
 10
269.14304427997519
 20
-817.38190053192955
 30
0.0
 40
2.0928725528899661
 50
273.83098160911521
 51
351.13514730980222
  0
LINE
  5
5F3
  8
DATA
  6
CONTINUOUS
 62
     7
 10
262.3419312799752
 20
-808.47011853192942
 30
0.0
 11
264.37145327997519
 21
-808.47011853192942
 31
0.0
  0
LINE
  5
5F4
  8
DATA
  6
CONTINUOUS
 62
     7
 10
258.30318227997509
 20
-808.47011853192942
 30
0.0
 11
261.57071027997517
 21
-808.47011853192942
 31
0.0
  0
LINE
  5
5F5
  8
DATA
  6
CONTINUOUS
 62
     7
 10
272.38804427997519
 20
-808.47011853192942
 30
0.0
 11
274.49874627997519
 21
-808.47011853192942
 31
0.0
  0
LINE
  5
5F6
  8
DATA
  6
CONTINUOUS
 62
     7
 10
265.42680427997522
 20
-808.47011853192942
 30
0.0
 11
269.3040734209365
 21
-808.47012743504399
 31
0.0
  0
LINE
  5
5F7
  8
DATA
  6
CONTINUOUS
 62
     7
 10
267.27366027997522
 20
-809.50517453192936
 30
0.0
 11
268.26812627997509
 21
-809.50517453192936
 31
0.0
  0
ARC
  5
5F8
  8
DATA
  6
CONTINUOUS
 62
     7
 10
269.1639112799752
 20
-810.55512453192932
 30
0.0
 40
2.0897029262026692
 50
8.2269238590166722
 51
86.154126692153724
  0
ARC
  5
5F9
  8
DATA
  6
CONTINUOUS
 62
     7
 10
268.2798692888386
 20
-816.50599477528385
 30
0.0
 40
1.9290924987199041
 50
269.65121993761858
 51
282.82648280687431
  0
ARC
  5
5FA
  8
DATA
  6
CONTINUOUS
 62
     7
 10
268.49653691018852
 20
-817.32157687427923
 30
0.0
 40
1.0861816940625391
 50
281.23310362266022
 51
306.86200889406138
  0
ARC
  5
5FB
  8
DATA
  6
CONTINUOUS
 62
     7
 10
268.93396877990568
 20
-814.6139859816559
 30
0.0
 40
0.3506614263002887
 50
5.7329807106039947
 51
52.358097502427562
  0
ARC
  5
5FC
  8
DATA
  6
CONTINUOUS
 62
     7
 10
268.2798692888386
 20
-816.02093428857495
 30
0.0
 40
1.9290924987199161
 50
77.173517193125733
 51
90.348780062381365
  0
ARC
  5
5FD
  8
DATA
  6
CONTINUOUS
 62
     7
 10
268.49653691018852
 20
-815.20535218957934
 30
0.0
 40
1.0861816940624871
 50
53.13799110593375
 51
78.766896377339876
  0
ARC
  5
5FE
  8
DATA
  6
CONTINUOUS
 62
     7
 10
270.16677027997508
 20
-814.85386953192949
 30
0.0
 40
1.066876980305097
 50
3.8670063598166702
 51
88.361634567898975
  0
ARC
  5
5FF
  8
DATA
  6
CONTINUOUS
 62
     7
 10
270.16579127997511
 20
-812.71995753192948
 30
0.0
 40
1.0679371339423001
 50
271.6892821046506
 51
356.07828298266088
  0
ARC
  5
600
  8
DATA
  6
CONTINUOUS
 62
     7
 10
268.93396877990568
 20
-812.51442908220304
 30
0.0
 40
0.3506614263003854
 50
307.64190249756109
 51
354.26701928937888
  0
ARC
  5
601
  8
DATA
  6
CONTINUOUS
 62
     7
 10
268.2798692888386
 20
-811.10748077528365
 30
0.0
 40
1.9290924987199041
 50
269.65121993761858
 51
282.82648280687431
  0
ARC
  5
602
  8
DATA
  6
CONTINUOUS
 62
     7
 10
268.49653691018852
 20
-811.92306287427937
 30
0.0
 40
1.0861816940625391
 50
281.23310362266022
 51
306.86200889406138
  0
ARC
  5
603
  8
DATA
  6
CONTINUOUS
 62
     7
 10
268.93396877990568
 20
-810.02728298165584
 30
0.0
 40
0.3506614263002887
 50
5.7329807106039947
 51
52.358097502431242
  0
ARC
  5
604
  8
DATA
  6
CONTINUOUS
 62
     7
 10
268.2798692888386
 20
-811.43423128857489
 30
0.0
 40
1.9290924987199161
 50
77.173517193125733
 51
90.348780062381365
  0
ARC
  5
605
  8
DATA
  6
CONTINUOUS
 62
     7
 10
268.49653691018852
 20
-810.6186491895794
 30
0.0
 40
1.086181694062579
 50
53.137991105937338
 51
78.766896377339876
  0
TEXT
  5
606
  8
DATA
 62
     7
 10
819.5
 20
-704.16955953359661
 30
0.0
 40
17.35954284667968
  1
DO NOT USE
 41
0.8
 11
819.5
 21
-686.81001668691692
 31
0.0
 73
     3
  0
TEXT
  5
607
  8
DATA
 62
     7
 10
878.17280648631595
 20
-756.62792968749943
 30
0.0
 40
14.46628570556641
  1
100 V LINE
 41
0.8
 11
878.17280648631595
 21
-742.16164398193303
 31
0.0
 73
     3
  0
TEXT
  5
608
  8
DATA
 62
     7
 10
886.4728617268255
 20
-784.62792968749943
 30
0.0
 40
14.46628570556641
  1
70 V LINE
 41
0.8
 11
886.4728617268255
 21
-770.16164398193303
 31
0.0
 73
     3
  0
LINE
  5
609
  8
DATA
  6
CONTINUOUS
 62
     7
 10
686.5
 20
-695.8160439085982
 30
0.0
 11
711.875
 21
-739.76683315065929
 31
0.0
  0
LINE
  5
60A
  8
DATA
  6
CONTINUOUS
 62
     7
 10
744.2499999999967
 20
-729.15802195429944
 30
0.0
 11
763.50000000000307
 21
-695.8160439085982
 31
0.0
  0
TEXT
  5
60B
  8
DATA
 62
     7
 10
594.28157713231076
 20
-704.16955953359661
 30
0.0
 40
17.35954284667968
  1
15W
 41
0.8
 11
594.28157713231076
 21
-686.81001668691692
 31
0.0
 73
     3
  0
TEXT
  5
60C
  8
DATA
 62
     7
 10
711.00000000000318
 20
-704.35351562499784
 30
0.0
 40
17.35954284667968
  1
30W
 41
0.8
 11
711.00000000000318
 21
-686.99397277831815
 31
0.0
 73
     3
  0
LINE
  5
60D
  8
DATA
  6
CONTINUOUS
 62
     7
 10
473.0
 20
-762.50000000000102
 30
0.0
 11
698.74999999999682
 21
-762.50000000000102
 31
0.0
  0
TEXT
  5
60E
  8
DATA
 62
     7
 10
480.0
 20
-756.62792968749943
 30
0.0
 40
14.46628570556641
  1
100 V LINE
 41
0.8
 11
480.0
 21
-742.16164398193303
 31
0.0
 73
     3
  0
TEXT
  5
60F
  8
DATA
 62
     7
 10
480.0
 20
-784.62792968749943
 30
0.0
 40
14.46628570556641
  1
70 V LINE
 41
0.8
 11
480.0
 21
-770.16164398193303
 31
0.0
 73
     3
  0
CIRCLE
  5
610
  8
DATA
  6
CONTINUOUS
 62
     7
 10
725.0
 20
-762.50000000000102
 30
0.0
 40
26.25
  0
LINE
  5
611
  8
DATA
  6
CONTINUOUS
 62
     7
 10
686.5000000000033
 20
-829.1839560914018
 30
0.0
 11
637.50000000000318
 21
-829.1839560914018
 31
0.0
  0
LINE
  5
612
  8
DATA
  6
CONTINUOUS
 62
     7
 10
711.875
 20
-785.23316684934252
 30
0.0
 11
686.5000000000033
 21
-829.1839560914018
 31
0.0
  0
LINE
  5
613
  8
DATA
  6
CONTINUOUS
 62
     7
 10
725.0
 20
-709.9999999999992
 30
0.0
 11
725.0
 21
-736.25000000000102
 31
0.0
  0
LINE
  5
614
  8
DATA
  6
CONTINUOUS
 62
     7
 10
725.0
 20
-788.74999999999943
 30
0.0
 11
725.0
 21
-814.99999999999955
 31
0.0
  0
LINE
  5
615
  8
DATA
  6
CONTINUOUS
 62
     7
 10
738.12500000000307
 20
-785.23316684934252
 30
0.0
 11
763.50000000000307
 21
-829.1839560914018
 31
0.0
  0
LINE
  5
616
  8
DATA
  6
CONTINUOUS
 62
     7
 10
763.50000000000307
 20
-829.1839560914018
 30
0.0
 11
812.50000000000307
 21
-829.1839560914018
 31
0.0
  0
LINE
  5
617
  8
DATA
  6
CONTINUOUS
 62
     7
 10
665.89376619171753
 20
-728.37500000000102
 30
0.0
 11
702.26683315065839
 21
-749.37499999999943
 31
0.0
  0
LINE
  5
618
  8
DATA
  6
CONTINUOUS
 62
     7
 10
747.7331668493448
 20
-775.62499999999943
 30
0.0
 11
784.10623380828861
 21
-796.62500000000102
 31
0.0
  0
LINE
  5
619
  8
DATA
  6
CONTINUOUS
 62
     7
 10
784.10623380828861
 20
-796.62500000000102
 30
0.0
 11
812.49999999999682
 21
-796.62500000000102
 31
0.0
  0
LINE
  5
61A
  8
DATA
  6
CONTINUOUS
 62
     7
 10
637.50000000000318
 20
-728.37500000000102
 30
0.0
 11
665.89376619171753
 21
-728.37500000000102
 31
0.0
  0
LINE
  5
61B
  8
DATA
  6
CONTINUOUS
 62
     7
 10
751.25000000000318
 20
-762.50000000000102
 30
0.0
 11
977.0
 21
-762.50000000000102
 31
0.0
  0
CIRCLE
  5
61C
  8
DATA
  6
CONTINUOUS
 62
     7
 10
740.75000000000307
 20
-735.22019978079118
 30
0.0
 40
3.5
  0
TEXT
  5
61D
  8
DATA
 62
     7
 10
590.50882475026265
 20
-736.7285156249992
 30
0.0
 40
17.35954284667968
  1
7.5W
 41
0.8
 11
590.50882475026265
 21
-719.36897277831952
 31
0.0
 73
     3
  0
TEXT
  5
61E
  8
DATA
 62
     7
 10
594.28157713231076
 20
-837.53747171640191
 30
0.0
 40
17.35954284667968
  1
30W
 41
0.8
 11
594.28157713231076
 21
-820.17792886972222
 31
0.0
 73
     3
  0
TEXT
  5
61F
  8
DATA
 62
     7
 10
711.00000000000318
 20
-837.3535156249992
 30
0.0
 40
17.35954284667968
  1
15W
 41
0.8
 11
711.00000000000318
 21
-819.99397277831963
 31
0.0
 73
     3
  0
TEXT
  5
620
  8
DATA
 62
     7
 10
819.5
 20
-837.53747171640191
 30
0.0
 40
17.35954284667968
  1
7.5W
 41
0.8
 11
819.5
 21
-820.17792886972222
 31
0.0
 73
     3
  0
TEXT
  5
621
  8
DATA
 62
     7
 10
819.49999999999682
 20
-804.9785156250008
 30
0.0
 40
17.35954284667968
  1
3.7W
 41
0.8
 11
819.49999999999682
 21
-787.61897277832122
 31
0.0
 73
     3
  0
TEXT
  5
622
  8
DATA
 62
     7
 10
681.20312648091794
 20
-757.27734375000102
 30
0.0
 40
11.57302856445312
  1
1
 41
0.8
 11
681.20312648091794
 21
-745.70431518554778
 31
0.0
 73
     3
  0
TEXT
  5
623
  8
DATA
 62
     7
 10
693.82949523589753
 20
-737.16917690065907
 30
0.0
 40
11.57302856445312
  1
2
 41
0.8
 11
693.82949523589753
 21
-725.59614833620606
 31
0.0
 73
     3
  0
TEXT
  5
624
  8
DATA
 62
     7
 10
713.95449523590048
 20
-730.1523437499992
 30
0.0
 40
11.57302856445312
  1
3
 41
0.8
 11
713.95449523590048
 21
-718.57931518554597
 31
0.0
 73
     3
  0
TEXT
  5
625
  8
DATA
 62
     7
 10
711.875
 20
-807.13551059934264
 30
0.0
 40
11.57302856445312
  1
4
 41
0.8
 11
711.875
 21
-795.56248203488929
 31
0.0
 73
     3
  0
TEXT
  5
626
  8
DATA
 62
     7
 10
731.99999999999682
 20
-807.15234374999943
 30
0.0
 40
11.57302856445312
  1
3
 41
0.8
 11
731.99999999999682
 21
-795.57931518554631
 31
0.0
 73
     3
  0
TEXT
  5
627
  8
DATA
 62
     7
 10
748.07949523590059
 20
-796.63551059934252
 30
0.0
 40
11.57302856445312
  1
2
 41
0.8
 11
748.07949523590059
 21
-785.0624820348894
 31
0.0
 73
     3
  0
TEXT
  5
628
  8
DATA
 62
     7
 10
757.68766208523891
 20
-776.52734374999943
 30
0.0
 40
11.57302856445312
  1
1
 41
0.8
 11
757.68766208523891
 21
-764.95431518554619
 31
0.0
 73
     3
  0
LINE
  5
629
  8
DATA
  6
CONTINUOUS
 62
     7
 10
763.50000000000307
 20
-695.8160439085982
 30
0.0
 11
812.50000000000307
 21
-695.8160439085982
 31
0.0
  0
LINE
  5
62A
  8
DATA
  6
CONTINUOUS
 62
     7
 10
686.5
 20
-695.8160439085982
 30
0.0
 11
637.5
 21
-695.8160439085982
 31
0.0
  0
LINE
  5
62B
  8
DATA
  6
CONTINUOUS
 62
     7
 10
473.0
 20
-849.99999999999943
 30
0.0
 11
473.0
 21
-675.00000000000068
 31
0.0
  0
LINE
  5
62C
  8
DATA
  6
CONTINUOUS
 62
     7
 10
473.0
 20
-675.00000000000068
 30
0.0
 11
977.0
 21
-675.00000000000068
 31
0.0
  0
LINE
  5
62D
  8
DATA
  6
CONTINUOUS
 62
     7
 10
977.0
 20
-675.00000000000068
 30
0.0
 11
977.0
 21
-849.99999999999943
 31
0.0
  0
LINE
  5
62E
  8
DATA
  6
CONTINUOUS
 62
     7
 10
977.0
 20
-849.99999999999943
 30
0.0
 11
473.0
 21
-849.99999999999943
 31
0.0
  0
ENDSEC
  0
EOF
